ISO-10303-21;
HEADER;
FILE_DESCRIPTION (( 'STEP AP203' ),
    '1' );
FILE_NAME ('Web Model 20207_20213.step',
    '2022-03-01T15:55:19',
    ( '' ),
    ( '' ),
    'SwSTEP 2.0',
    'SolidWorks 2021',
    '' );
FILE_SCHEMA (( 'CONFIG_CONTROL_DESIGN' ));
ENDSEC;

DATA;
#1 = CARTESIAN_POINT ( 'NONE',  ( 15.00000000000000000, 1.836970198721029589E-15, 0.1000000000000000056 ) ) ;
#2 = DIRECTION ( 'NONE',  ( 0.000000000000000000, 0.000000000000000000, 1.000000000000000000 ) ) ;
#3 = DIRECTION ( 'NONE',  ( 1.000000000000000000, 0.000000000000000000, 0.000000000000000000 ) ) ;
#4 = DATE_AND_TIME ( #22, #170 ) ;
#5 = CLOSED_SHELL ( 'NONE', ( #47, #24, #17, #174 ) ) ;
#6 = DATE_AND_TIME ( #63, #27 ) ;
#7 = DATE_TIME_ROLE ( 'creation_date' ) ;
#8 = CC_DESIGN_PERSON_AND_ORGANIZATION_ASSIGNMENT ( #147, #130, ( #62 ) ) ;
#9 = APPROVAL_ROLE ( '' ) ;
#10 = ORIENTED_EDGE ( 'NONE', *, *, #123, .F. ) ;
#11 = AXIS2_PLACEMENT_3D ( 'NONE', #12, #71, #124 ) ;
#12 = CARTESIAN_POINT ( 'NONE',  ( 0.000000000000000000, 0.000000000000000000, 0.1000000000000000056 ) ) ;
#13 = ORIENTED_EDGE ( 'NONE', *, *, #169, .F. ) ;
#14 = CC_DESIGN_PERSON_AND_ORGANIZATION_ASSIGNMENT ( #52, #37, ( #82 ) ) ;
#15 = CARTESIAN_POINT ( 'NONE',  ( 0.000000000000000000, 0.000000000000000000, 0.1000000000000000056 ) ) ;
#16 = CARTESIAN_POINT ( 'NONE',  ( 0.000000000000000000, 0.000000000000000000, 0.000000000000000000 ) ) ;
#17 = ADVANCED_FACE ( 'NONE', ( #30 ), #106, .T. ) ;
#18 = CIRCLE ( 'NONE', #98, 15.00000000000000000 ) ;
#19 = PERSON ( 'UNSPECIFIED', 'UNSPECIFIED', 'UNSPECIFIED', ('UNSPECIFIED'), ('UNSPECIFIED'), ('UNSPECIFIED') ) ;
#20 = PRODUCT ( 'Web Model 20207_20213', 'Web Model 20207_20213', '', ( #175 ) ) ;
#21 = COORDINATED_UNIVERSAL_TIME_OFFSET ( 5, 0, .BEHIND. ) ;
#22 = CALENDAR_DATE ( 2022, 1, 3 ) ;
#23 = APPROVAL_PERSON_ORGANIZATION ( #165, #118, #9 ) ;
#24 = ADVANCED_FACE ( 'NONE', ( #173 ), #148, .T. ) ;
#25 = DATE_TIME_ROLE ( 'classification_date' ) ;
#26 = UNCERTAINTY_MEASURE_WITH_UNIT (LENGTH_MEASURE( 1.000000000000000082E-05 ), #46, 'distance_accuracy_value', 'NONE');
#27 = LOCAL_TIME ( 10, 55, 19.00000000000000000, #21 ) ;
#28 = ORIENTED_EDGE ( 'NONE', *, *, #81, .F. ) ;
#29 = LOCAL_TIME ( 10, 55, 19.00000000000000000, #159 ) ;
#30 = FACE_OUTER_BOUND ( 'NONE', #162, .T. ) ;
#31 = CYLINDRICAL_SURFACE ( 'NONE', #75, 15.00000000000000000 ) ;
#32 = CARTESIAN_POINT ( 'NONE',  ( 15.00000000000000000, 1.836970198721029589E-15, 0.000000000000000000 ) ) ;
#33 = APPROVAL_ROLE ( '' ) ;
#34 = PLANE ( 'NONE',  #134 ) ;
#35 = DIRECTION ( 'NONE',  ( 1.000000000000000000, 0.000000000000000000, -0.000000000000000000 ) ) ;
#36 = CARTESIAN_POINT ( 'NONE',  ( 0.000000000000000000, 0.000000000000000000, 0.1000000000000000056 ) ) ;
#37 = PERSON_AND_ORGANIZATION_ROLE ( 'creator' ) ;
#38 = AXIS2_PLACEMENT_3D ( 'NONE', #15, #101, #73 ) ;
#39 = APPROVAL ( #65, 'UNSPECIFIED' ) ;
#40 = AXIS2_PLACEMENT_3D ( 'NONE', #44, #2, #85 ) ;
#41 = DIRECTION ( 'NONE',  ( -0.000000000000000000, -0.000000000000000000, -1.000000000000000000 ) ) ;
#42 = APPROVAL_STATUS ( 'not_yet_approved' ) ;
#43 = APPLICATION_PROTOCOL_DEFINITION ( 'international standard', 'config_control_design', 1994, #61 ) ;
#44 = CARTESIAN_POINT ( 'NONE',  ( 0.000000000000000000, 0.000000000000000000, 0.000000000000000000 ) ) ;
#45 = LINE ( 'NONE', #96, #128 ) ;
#46 =( LENGTH_UNIT ( ) NAMED_UNIT ( * ) SI_UNIT ( .MILLI., .METRE. ) );
#47 = ADVANCED_FACE ( 'NONE', ( #152 ), #31, .T. ) ;
#48 = APPROVAL_STATUS ( 'not_yet_approved' ) ;
#49 = CALENDAR_DATE ( 2022, 1, 3 ) ;
#50 = APPROVAL_DATE_TIME ( #145, #39 ) ;
#51 = CC_DESIGN_APPROVAL ( #39, ( #62 ) ) ;
#52 = PERSON_AND_ORGANIZATION ( #19, #166 ) ;
#53 = VERTEX_POINT ( 'NONE', #114 ) ;
#54 = ORIENTED_EDGE ( 'NONE', *, *, #123, .T. ) ;
#55 = CARTESIAN_POINT ( 'NONE',  ( 0.000000000000000000, 0.000000000000000000, 0.1000000000000000056 ) ) ;
#56 = AXIS2_PLACEMENT_3D ( 'NONE', #36, #57, #126 ) ;
#57 = DIRECTION ( 'NONE',  ( 0.000000000000000000, 0.000000000000000000, 1.000000000000000000 ) ) ;
#58 = PERSON_AND_ORGANIZATION ( #19, #166 ) ;
#59 = CARTESIAN_POINT ( 'NONE',  ( 15.00000000000000000, 1.836970198721029589E-15, 0.1000000000000000056 ) ) ;
#60 = PERSON_AND_ORGANIZATION ( #19, #166 ) ;
#61 = APPLICATION_CONTEXT ( 'configuration controlled 3d designs of mechanical parts and assemblies' ) ;
#62 = SECURITY_CLASSIFICATION ( '', '', #116 ) ;
#63 = CALENDAR_DATE ( 2022, 1, 3 ) ;
#64 = APPROVAL_DATE_TIME ( #6, #118 ) ;
#65 = APPROVAL_STATUS ( 'not_yet_approved' ) ;
#66 = DESIGN_CONTEXT ( 'detailed design', #61, 'design' ) ;
#67 = CC_DESIGN_PERSON_AND_ORGANIZATION_ASSIGNMENT ( #58, #110, ( #20 ) ) ;
#68 = EDGE_LOOP ( 'NONE', ( #172, #10, #107, #122 ) ) ;
#69 = EDGE_LOOP ( 'NONE', ( #108, #161 ) ) ;
#70 = CC_DESIGN_DATE_AND_TIME_ASSIGNMENT ( #117, #25, ( #62 ) ) ;
#71 = DIRECTION ( 'NONE',  ( 0.000000000000000000, 0.000000000000000000, 1.000000000000000000 ) ) ;
#72 = CIRCLE ( 'NONE', #38, 15.00000000000000000 ) ;
#73 = DIRECTION ( 'NONE',  ( 1.000000000000000000, 0.000000000000000000, 0.000000000000000000 ) ) ;
#74 = FACE_OUTER_BOUND ( 'NONE', #69, .T. ) ;
#75 = AXIS2_PLACEMENT_3D ( 'NONE', #79, #137, #133 ) ;
#76 = PERSON_AND_ORGANIZATION ( #19, #166 ) ;
#77 = COORDINATED_UNIVERSAL_TIME_OFFSET ( 5, 0, .BEHIND. ) ;
#78 = PERSON_AND_ORGANIZATION ( #19, #166 ) ;
#79 = CARTESIAN_POINT ( 'NONE',  ( 0.000000000000000000, 0.000000000000000000, 0.1000000000000000056 ) ) ;
#80 = ORIENTED_EDGE ( 'NONE', *, *, #150, .T. ) ;
#81 = EDGE_CURVE ( 'NONE', #53, #121, #45, .T. ) ;
#82 = PRODUCT_DEFINITION_FORMATION_WITH_SPECIFIED_SOURCE ( 'ANY', '', #20, .NOT_KNOWN. ) ;
#83 = LINE ( 'NONE', #59, #103 ) ;
#84 = COORDINATED_UNIVERSAL_TIME_OFFSET ( 5, 0, .BEHIND. ) ;
#85 = DIRECTION ( 'NONE',  ( 1.000000000000000000, 0.000000000000000000, 0.000000000000000000 ) ) ;
#86 = CIRCLE ( 'NONE', #56, 15.00000000000000000 ) ;
#87 =( NAMED_UNIT ( * ) SI_UNIT ( $, .STERADIAN. ) SOLID_ANGLE_UNIT ( ) );
#88 = CALENDAR_DATE ( 2022, 1, 3 ) ;
#89 = APPROVAL_ROLE ( '' ) ;
#90 = APPROVAL ( #42, 'UNSPECIFIED' ) ;
#91 = LOCAL_TIME ( 10, 55, 19.00000000000000000, #84 ) ;
#92 = VERTEX_POINT ( 'NONE', #32 ) ;
#93 = AXIS2_PLACEMENT_3D ( 'NONE', #156, #129, #99 ) ;
#94 = DIRECTION ( 'NONE',  ( -1.000000000000000000, 0.000000000000000000, 0.000000000000000000 ) ) ;
#95 = APPLICATION_CONTEXT ( 'configuration controlled 3d designs of mechanical parts and assemblies' ) ;
#96 = CARTESIAN_POINT ( 'NONE',  ( -15.00000000000000000, 0.000000000000000000, 0.1000000000000000056 ) ) ;
#97 = DIRECTION ( 'NONE',  ( 0.000000000000000000, 0.000000000000000000, 1.000000000000000000 ) ) ;
#98 = AXIS2_PLACEMENT_3D ( 'NONE', #16, #144, #3 ) ;
#99 = DIRECTION ( 'NONE',  ( 1.000000000000000000, 0.000000000000000000, 0.000000000000000000 ) ) ;
#100 = EDGE_CURVE ( 'NONE', #151, #92, #83, .T. ) ;
#101 = DIRECTION ( 'NONE',  ( 0.000000000000000000, 0.000000000000000000, 1.000000000000000000 ) ) ;
#102 = APPROVAL_PERSON_ORGANIZATION ( #60, #90, #33 ) ;
#103 = VECTOR ( 'NONE', #140, 1000.000000000000000 ) ;
#104 = SHAPE_DEFINITION_REPRESENTATION ( #168, #132 ) ;
#105 = MANIFOLD_SOLID_BREP ( 'Boss-Extrude1', #5 ) ;
#106 = PLANE ( 'NONE',  #11 ) ;
#107 = ORIENTED_EDGE ( 'NONE', *, *, #81, .T. ) ;
#108 = ORIENTED_EDGE ( 'NONE', *, *, #131, .F. ) ;
#109 = CC_DESIGN_DATE_AND_TIME_ASSIGNMENT ( #4, #7, ( #149 ) ) ;
#110 = PERSON_AND_ORGANIZATION_ROLE ( 'design_owner' ) ;
#111 = DATE_AND_TIME ( #127, #91 ) ;
#112 = AXIS2_PLACEMENT_3D ( 'NONE', #55, #41, #94 ) ;
#113 = PERSON_AND_ORGANIZATION ( #19, #166 ) ;
#114 = CARTESIAN_POINT ( 'NONE',  ( -15.00000000000000000, 0.000000000000000000, 0.1000000000000000056 ) ) ;
#115 = CC_DESIGN_PERSON_AND_ORGANIZATION_ASSIGNMENT ( #76, #167, ( #82 ) ) ;
#116 = SECURITY_CLASSIFICATION_LEVEL ( 'unclassified' ) ;
#117 = DATE_AND_TIME ( #49, #120 ) ;
#118 = APPROVAL ( #48, 'UNSPECIFIED' ) ;
#119 = ORIENTED_EDGE ( 'NONE', *, *, #100, .T. ) ;
#120 = LOCAL_TIME ( 10, 55, 19.00000000000000000, #77 ) ;
#121 = VERTEX_POINT ( 'NONE', #138 ) ;
#122 = ORIENTED_EDGE ( 'NONE', *, *, #131, .T. ) ;
#123 = EDGE_CURVE ( 'NONE', #53, #151, #72, .T. ) ;
#124 = DIRECTION ( 'NONE',  ( 1.000000000000000000, 0.000000000000000000, -0.000000000000000000 ) ) ;
#125 = CC_DESIGN_SECURITY_CLASSIFICATION ( #62, ( #82 ) ) ;
#126 = DIRECTION ( 'NONE',  ( 1.000000000000000000, 0.000000000000000000, 0.000000000000000000 ) ) ;
#127 = CALENDAR_DATE ( 2022, 1, 3 ) ;
#128 = VECTOR ( 'NONE', #163, 1000.000000000000000 ) ;
#129 = DIRECTION ( 'NONE',  ( 0.000000000000000000, 0.000000000000000000, 1.000000000000000000 ) ) ;
#130 = PERSON_AND_ORGANIZATION_ROLE ( 'classification_officer' ) ;
#131 = EDGE_CURVE ( 'NONE', #121, #92, #153, .T. ) ;
#132 = ADVANCED_BREP_SHAPE_REPRESENTATION ( 'Web Model 20207_20213', ( #105, #40 ), #158 ) ;
#133 = DIRECTION ( 'NONE',  ( -1.000000000000000000, 0.000000000000000000, 0.000000000000000000 ) ) ;
#134 = AXIS2_PLACEMENT_3D ( 'NONE', #142, #97, #35 ) ;
#135 = PRODUCT_RELATED_PRODUCT_CATEGORY ( 'detail', '', ( #20 ) ) ;
#136 = ORIENTED_EDGE ( 'NONE', *, *, #169, .T. ) ;
#137 = DIRECTION ( 'NONE',  ( -0.000000000000000000, -0.000000000000000000, -1.000000000000000000 ) ) ;
#138 = CARTESIAN_POINT ( 'NONE',  ( -15.00000000000000000, 0.000000000000000000, 0.000000000000000000 ) ) ;
#139 = CC_DESIGN_APPROVAL ( #118, ( #82 ) ) ;
#140 = DIRECTION ( 'NONE',  ( -0.000000000000000000, -0.000000000000000000, -1.000000000000000000 ) ) ;
#141 = PERSON_AND_ORGANIZATION_ROLE ( 'creator' ) ;
#142 = CARTESIAN_POINT ( 'NONE',  ( 0.000000000000000000, 0.000000000000000000, 0.000000000000000000 ) ) ;
#143 = CC_DESIGN_APPROVAL ( #90, ( #149 ) ) ;
#144 = DIRECTION ( 'NONE',  ( 0.000000000000000000, 0.000000000000000000, 1.000000000000000000 ) ) ;
#145 = DATE_AND_TIME ( #88, #29 ) ;
#146 = CC_DESIGN_PERSON_AND_ORGANIZATION_ASSIGNMENT ( #113, #141, ( #149 ) ) ;
#147 = PERSON_AND_ORGANIZATION ( #19, #166 ) ;
#148 = CYLINDRICAL_SURFACE ( 'NONE', #112, 15.00000000000000000 ) ;
#149 = PRODUCT_DEFINITION ( 'UNKNOWN', '', #82, #66 ) ;
#150 = EDGE_CURVE ( 'NONE', #92, #121, #18, .T. ) ;
#151 = VERTEX_POINT ( 'NONE', #1 ) ;
#152 = FACE_OUTER_BOUND ( 'NONE', #171, .T. ) ;
#153 = CIRCLE ( 'NONE', #93, 15.00000000000000000 ) ;
#154 =( NAMED_UNIT ( * ) PLANE_ANGLE_UNIT ( ) SI_UNIT ( $, .RADIAN. ) );
#155 = APPROVAL_DATE_TIME ( #111, #90 ) ;
#156 = CARTESIAN_POINT ( 'NONE',  ( 0.000000000000000000, 0.000000000000000000, 0.000000000000000000 ) ) ;
#157 = COORDINATED_UNIVERSAL_TIME_OFFSET ( 5, 0, .BEHIND. ) ;
#158 =( GEOMETRIC_REPRESENTATION_CONTEXT ( 3 ) GLOBAL_UNCERTAINTY_ASSIGNED_CONTEXT ( ( #26 ) ) GLOBAL_UNIT_ASSIGNED_CONTEXT ( ( #46, #154, #87 ) ) REPRESENTATION_CONTEXT ( 'NONE', 'WORKASPACE' ) );
#159 = COORDINATED_UNIVERSAL_TIME_OFFSET ( 5, 0, .BEHIND. ) ;
#160 = APPROVAL_PERSON_ORGANIZATION ( #78, #39, #89 ) ;
#161 = ORIENTED_EDGE ( 'NONE', *, *, #150, .F. ) ;
#162 = EDGE_LOOP ( 'NONE', ( #54, #136 ) ) ;
#163 = DIRECTION ( 'NONE',  ( -0.000000000000000000, -0.000000000000000000, -1.000000000000000000 ) ) ;
#164 = APPLICATION_PROTOCOL_DEFINITION ( 'international standard', 'config_control_design', 1994, #95 ) ;
#165 = PERSON_AND_ORGANIZATION ( #19, #166 ) ;
#166 = ORGANIZATION ( 'UNSPECIFIED', 'UNSPECIFIED', '' ) ;
#167 = PERSON_AND_ORGANIZATION_ROLE ( 'design_supplier' ) ;
#168 = PRODUCT_DEFINITION_SHAPE ( 'NONE', 'NONE',  #149 ) ;
#169 = EDGE_CURVE ( 'NONE', #151, #53, #86, .T. ) ;
#170 = LOCAL_TIME ( 10, 55, 19.00000000000000000, #157 ) ;
#171 = EDGE_LOOP ( 'NONE', ( #13, #119, #80, #28 ) ) ;
#172 = ORIENTED_EDGE ( 'NONE', *, *, #100, .F. ) ;
#173 = FACE_OUTER_BOUND ( 'NONE', #68, .T. ) ;
#174 = ADVANCED_FACE ( 'NONE', ( #74 ), #34, .F. ) ;
#175 = MECHANICAL_CONTEXT ( 'NONE', #95, 'mechanical' ) ;
ENDSEC;
END-ISO-10303-21;
