ISO-10303-21;
HEADER;
FILE_DESCRIPTION (( 'STEP AP203' ),
    '1' );
FILE_NAME ('Web Model 64402MX_43210.step',
    '2017-10-30T13:10:10',
    ( '' ),
    ( '' ),
    'SwSTEP 2.0',
    'SolidWorks 2016',
    '' );
FILE_SCHEMA (( 'CONFIG_CONTROL_DESIGN' ));
ENDSEC;

DATA;
#1 = VERTEX_POINT ( 'NONE', #97 ) ;
#2 = EDGE_CURVE ( 'NONE', #94, #214, #6, .T. ) ;
#3 = DIRECTION ( 'NONE',  ( 0.0000000000000000000, 0.0000000000000000000, 1.000000000000000000 ) ) ;
#4 = COORDINATED_UNIVERSAL_TIME_OFFSET ( 5, 0, .BEHIND. ) ;
#5 = CC_DESIGN_PERSON_AND_ORGANIZATION_ASSIGNMENT ( #198, #104, ( #185 ) ) ;
#6 = LINE ( 'NONE', #196, #116 ) ;
#7 = DIRECTION ( 'NONE',  ( 0.0000000000000000000, 1.000000000000000000, 0.0000000000000000000 ) ) ;
#8 = CARTESIAN_POINT ( 'NONE',  ( 12.49999999999999800, -12.49999999999999600, 4.750000000000000000 ) ) ;
#9 = EDGE_CURVE ( 'NONE', #123, #1, #27, .T. ) ;
#10 = CARTESIAN_POINT ( 'NONE',  ( -12.50000000000000200, -12.50000000000000000, 4.750000000000000000 ) ) ;
#11 = LINE ( 'NONE', #211, #161 ) ;
#12 = ORIENTED_EDGE ( 'NONE', *, *, #235, .T. ) ;
#13 = CARTESIAN_POINT ( 'NONE',  ( 12.49999999999999800, 12.50000000000000400, 4.750000000000000000 ) ) ;
#14 = APPROVAL_PERSON_ORGANIZATION ( #74, #36, #141 ) ;
#15 = AXIS2_PLACEMENT_3D ( 'NONE', #131, #189, #119 ) ;
#16 = LINE ( 'NONE', #165, #53 ) ;
#17 = DATE_AND_TIME ( #224, #218 ) ;
#18 = APPROVAL ( #85, 'UNSPECIFIED' ) ;
#19 = VECTOR ( 'NONE', #42, 1000.000000000000000 ) ;
#20 = ORIENTED_EDGE ( 'NONE', *, *, #68, .F. ) ;
#21 = EDGE_CURVE ( 'NONE', #214, #169, #67, .T. ) ;
#22 = DIRECTION ( 'NONE',  ( 1.000000000000000000, 0.0000000000000000000, -0.0000000000000000000 ) ) ;
#23 = APPROVAL_STATUS ( 'not_yet_approved' ) ;
#24 = PERSON_AND_ORGANIZATION ( #217, #236 ) ;
#25 = CARTESIAN_POINT ( 'NONE',  ( 0.0000000000000000000, 0.0000000000000000000, -4.750000000000000000 ) ) ;
#26 = PERSON_AND_ORGANIZATION ( #217, #236 ) ;
#27 = LINE ( 'NONE', #234, #32 ) ;
#28 = SECURITY_CLASSIFICATION ( '', '', #167 ) ;
#29 = DIRECTION ( 'NONE',  ( 1.000000000000000000, 1.387778780781445700E-016, 0.0000000000000000000 ) ) ;
#30 = ADVANCED_FACE ( 'NONE', ( #207 ), #125, .F. ) ;
#31 = SHAPE_DEFINITION_REPRESENTATION ( #177, #160 ) ;
#32 = VECTOR ( 'NONE', #81, 1000.000000000000000 ) ;
#33 = ADVANCED_FACE ( 'NONE', ( #156 ), #221, .F. ) ;
#34 = PRODUCT ( 'Web Model 64402MX_43210', 'Web Model 64402MX_43210', '', ( #159 ) ) ;
#35 = CALENDAR_DATE ( 2017, 30, 10 ) ;
#36 = APPROVAL ( #100, 'UNSPECIFIED' ) ;
#37 = ORIENTED_EDGE ( 'NONE', *, *, #157, .F. ) ;
#38 = PERSON_AND_ORGANIZATION_ROLE ( 'design_supplier' ) ;
#39 = DIRECTION ( 'NONE',  ( -1.000000000000000000, -1.387778780781445700E-016, 0.0000000000000000000 ) ) ;
#40 = VECTOR ( 'NONE', #7, 1000.000000000000000 ) ;
#41 = ORIENTED_EDGE ( 'NONE', *, *, #68, .T. ) ;
#42 = DIRECTION ( 'NONE',  ( -0.0000000000000000000, -0.0000000000000000000, -1.000000000000000000 ) ) ;
#43 = CARTESIAN_POINT ( 'NONE',  ( -12.50000000000000200, -12.50000000000000000, -4.750000000000000000 ) ) ;
#44 = PLANE ( 'NONE',  #154 ) ;
#45 = APPLICATION_CONTEXT ( 'configuration controlled 3d designs of mechanical parts and assemblies' ) ;
#46 = CARTESIAN_POINT ( 'NONE',  ( -12.50000000000000200, 12.50000000000000000, 4.750000000000000000 ) ) ;
#47 = EDGE_LOOP ( 'NONE', ( #220, #130, #20, #188 ) ) ;
#48 = UNCERTAINTY_MEASURE_WITH_UNIT (LENGTH_MEASURE( 1.000000000000000100E-005 ), #170, 'distance_accuracy_value', 'NONE');
#49 =( GEOMETRIC_REPRESENTATION_CONTEXT ( 3 ) GLOBAL_UNCERTAINTY_ASSIGNED_CONTEXT ( ( #48 ) ) GLOBAL_UNIT_ASSIGNED_CONTEXT ( ( #170, #62, #152 ) ) REPRESENTATION_CONTEXT ( 'NONE', 'WORKASPACE' ) );
#50 = ORIENTED_EDGE ( 'NONE', *, *, #80, .F. ) ;
#51 = MANIFOLD_SOLID_BREP ( 'Boss-Extrude1', #96 ) ;
#52 = COORDINATED_UNIVERSAL_TIME_OFFSET ( 5, 0, .BEHIND. ) ;
#53 = VECTOR ( 'NONE', #39, 1000.000000000000000 ) ;
#54 = PERSON_AND_ORGANIZATION_ROLE ( 'classification_officer' ) ;
#55 = DATE_TIME_ROLE ( 'creation_date' ) ;
#56 = EDGE_LOOP ( 'NONE', ( #233, #86, #82, #199 ) ) ;
#57 = APPROVAL_DATE_TIME ( #66, #18 ) ;
#58 = AXIS2_PLACEMENT_3D ( 'NONE', #13, #135, #29 ) ;
#59 = VECTOR ( 'NONE', #114, 1000.000000000000000 ) ;
#60 = LOCAL_TIME ( 9, 10, 10.00000000000000000, #101 ) ;
#61 = CC_DESIGN_PERSON_AND_ORGANIZATION_ASSIGNMENT ( #70, #38, ( #118 ) ) ;
#62 =( NAMED_UNIT ( * ) PLANE_ANGLE_UNIT ( ) SI_UNIT ( $, .RADIAN. ) );
#63 = CC_DESIGN_DATE_AND_TIME_ASSIGNMENT ( #204, #69, ( #28 ) ) ;
#64 = LINE ( 'NONE', #10, #83 ) ;
#65 = VECTOR ( 'NONE', #179, 1000.000000000000000 ) ;
#66 = DATE_AND_TIME ( #181, #209 ) ;
#67 = LINE ( 'NONE', #232, #65 ) ;
#68 = EDGE_CURVE ( 'NONE', #231, #201, #147, .T. ) ;
#69 = DATE_TIME_ROLE ( 'classification_date' ) ;
#70 = PERSON_AND_ORGANIZATION ( #217, #236 ) ;
#71 = CC_DESIGN_DATE_AND_TIME_ASSIGNMENT ( #17, #55, ( #185 ) ) ;
#72 = ORIENTED_EDGE ( 'NONE', *, *, #206, .T. ) ;
#73 = DIRECTION ( 'NONE',  ( 1.000000000000000000, 0.0000000000000000000, -0.0000000000000000000 ) ) ;
#74 = PERSON_AND_ORGANIZATION ( #217, #236 ) ;
#75 = DIRECTION ( 'NONE',  ( 1.000000000000000000, 0.0000000000000000000, 0.0000000000000000000 ) ) ;
#76 = CARTESIAN_POINT ( 'NONE',  ( 0.0000000000000000000, 0.0000000000000000000, 4.750000000000000000 ) ) ;
#77 = AXIS2_PLACEMENT_3D ( 'NONE', #78, #75, #230 ) ;
#78 = CARTESIAN_POINT ( 'NONE',  ( -12.50000000000000200, -12.50000000000000000, 4.750000000000000000 ) ) ;
#79 = ORIENTED_EDGE ( 'NONE', *, *, #21, .F. ) ;
#80 = EDGE_CURVE ( 'NONE', #139, #94, #16, .T. ) ;
#81 = DIRECTION ( 'NONE',  ( 1.000000000000000000, 1.387778780781445700E-016, -0.0000000000000000000 ) ) ;
#82 = ORIENTED_EDGE ( 'NONE', *, *, #9, .F. ) ;
#83 = VECTOR ( 'NONE', #155, 1000.000000000000000 ) ;
#84 = ORIENTED_EDGE ( 'NONE', *, *, #235, .F. ) ;
#85 = APPROVAL_STATUS ( 'not_yet_approved' ) ;
#86 = ORIENTED_EDGE ( 'NONE', *, *, #194, .F. ) ;
#87 = CARTESIAN_POINT ( 'NONE',  ( 12.49999999999999800, 12.50000000000000400, 4.750000000000000000 ) ) ;
#88 = DESIGN_CONTEXT ( 'detailed design', #128, 'design' ) ;
#89 = CC_DESIGN_SECURITY_CLASSIFICATION ( #28, ( #118 ) ) ;
#90 = ORIENTED_EDGE ( 'NONE', *, *, #2, .F. ) ;
#91 = CARTESIAN_POINT ( 'NONE',  ( 12.49999999999999800, -12.49999999999999600, -4.750000000000000000 ) ) ;
#92 = PLANE ( 'NONE',  #77 ) ;
#93 = APPROVAL_DATE_TIME ( #138, #146 ) ;
#94 = VERTEX_POINT ( 'NONE', #133 ) ;
#95 = CC_DESIGN_APPROVAL ( #146, ( #118 ) ) ;
#96 = CLOSED_SHELL ( 'NONE', ( #195, #153, #30, #117, #212, #33 ) ) ;
#97 = CARTESIAN_POINT ( 'NONE',  ( 12.49999999999999800, -12.49999999999999600, 4.750000000000000000 ) ) ;
#98 = VECTOR ( 'NONE', #227, 1000.000000000000000 ) ;
#99 = LINE ( 'NONE', #186, #59 ) ;
#100 = APPROVAL_STATUS ( 'not_yet_approved' ) ;
#101 = COORDINATED_UNIVERSAL_TIME_OFFSET ( 5, 0, .BEHIND. ) ;
#102 = ORIENTED_EDGE ( 'NONE', *, *, #9, .T. ) ;
#103 = CC_DESIGN_PERSON_AND_ORGANIZATION_ASSIGNMENT ( #180, #202, ( #34 ) ) ;
#104 = PERSON_AND_ORGANIZATION_ROLE ( 'creator' ) ;
#105 = EDGE_CURVE ( 'NONE', #201, #123, #99, .T. ) ;
#106 = LINE ( 'NONE', #150, #19 ) ;
#107 = LINE ( 'NONE', #173, #40 ) ;
#108 = ORIENTED_EDGE ( 'NONE', *, *, #194, .T. ) ;
#109 = CARTESIAN_POINT ( 'NONE',  ( 12.49999999999999800, 12.50000000000000400, 4.750000000000000000 ) ) ;
#110 = DIRECTION ( 'NONE',  ( -0.0000000000000000000, -0.0000000000000000000, -1.000000000000000000 ) ) ;
#111 = APPROVAL_DATE_TIME ( #166, #36 ) ;
#112 = CARTESIAN_POINT ( 'NONE',  ( 12.49999999999999800, 12.50000000000000400, -4.750000000000000000 ) ) ;
#113 = AXIS2_PLACEMENT_3D ( 'NONE', #203, #164, #3 ) ;
#114 = DIRECTION ( 'NONE',  ( -0.0000000000000000000, -1.000000000000000000, -0.0000000000000000000 ) ) ;
#115 = APPROVAL_PERSON_ORGANIZATION ( #24, #18, #184 ) ;
#116 = VECTOR ( 'NONE', #216, 1000.000000000000000 ) ;
#117 = ADVANCED_FACE ( 'NONE', ( #205 ), #192, .F. ) ;
#118 = PRODUCT_DEFINITION_FORMATION_WITH_SPECIFIED_SOURCE ( 'ANY', '', #34, .NOT_KNOWN. ) ;
#119 = DIRECTION ( 'NONE',  ( 1.000000000000000000, 0.0000000000000000000, 0.0000000000000000000 ) ) ;
#120 = FACE_OUTER_BOUND ( 'NONE', #136, .T. ) ;
#121 = AXIS2_PLACEMENT_3D ( 'NONE', #25, #127, #22 ) ;
#122 = PERSON_AND_ORGANIZATION ( #217, #236 ) ;
#123 = VERTEX_POINT ( 'NONE', #228 ) ;
#124 = APPROVAL_ROLE ( '' ) ;
#125 = PLANE ( 'NONE',  #113 ) ;
#126 = COORDINATED_UNIVERSAL_TIME_OFFSET ( 5, 0, .BEHIND. ) ;
#127 = DIRECTION ( 'NONE',  ( 0.0000000000000000000, -0.0000000000000000000, 1.000000000000000000 ) ) ;
#128 = APPLICATION_CONTEXT ( 'configuration controlled 3d designs of mechanical parts and assemblies' ) ;
#129 = FACE_OUTER_BOUND ( 'NONE', #56, .T. ) ;
#130 = ORIENTED_EDGE ( 'NONE', *, *, #200, .F. ) ;
#131 = CARTESIAN_POINT ( 'NONE',  ( 0.0000000000000000000, 0.0000000000000000000, 0.0000000000000000000 ) ) ;
#132 = ORIENTED_EDGE ( 'NONE', *, *, #206, .F. ) ;
#133 = CARTESIAN_POINT ( 'NONE',  ( -12.50000000000000200, 12.50000000000000000, -4.750000000000000000 ) ) ;
#134 = CARTESIAN_POINT ( 'NONE',  ( 12.49999999999999800, -12.49999999999999600, -4.750000000000000000 ) ) ;
#135 = DIRECTION ( 'NONE',  ( 1.387778780781445700E-016, -1.000000000000000000, 0.0000000000000000000 ) ) ;
#136 = EDGE_LOOP ( 'NONE', ( #183, #229, #176, #225 ) ) ;
#137 = EDGE_LOOP ( 'NONE', ( #145, #102, #12, #41 ) ) ;
#138 = DATE_AND_TIME ( #158, #60 ) ;
#139 = VERTEX_POINT ( 'NONE', #112 ) ;
#140 = VECTOR ( 'NONE', #143, 1000.000000000000000 ) ;
#141 = APPROVAL_ROLE ( '' ) ;
#142 = EDGE_CURVE ( 'NONE', #123, #214, #64, .T. ) ;
#143 = DIRECTION ( 'NONE',  ( -1.000000000000000000, -1.387778780781445700E-016, 0.0000000000000000000 ) ) ;
#144 = LOCAL_TIME ( 9, 10, 10.00000000000000000, #52 ) ;
#145 = ORIENTED_EDGE ( 'NONE', *, *, #105, .T. ) ;
#146 = APPROVAL ( #23, 'UNSPECIFIED' ) ;
#147 = LINE ( 'NONE', #87, #140 ) ;
#148 = DIRECTION ( 'NONE',  ( 0.0000000000000000000, -0.0000000000000000000, 1.000000000000000000 ) ) ;
#149 = DIRECTION ( 'NONE',  ( -1.000000000000000000, -1.387778780781445700E-016, 0.0000000000000000000 ) ) ;
#150 = CARTESIAN_POINT ( 'NONE',  ( 12.49999999999999800, -12.49999999999999600, 4.750000000000000000 ) ) ;
#151 = VECTOR ( 'NONE', #191, 1000.000000000000000 ) ;
#152 =( NAMED_UNIT ( * ) SI_UNIT ( $, .STERADIAN. ) SOLID_ANGLE_UNIT ( ) );
#153 = ADVANCED_FACE ( 'NONE', ( #129 ), #171, .F. ) ;
#154 = AXIS2_PLACEMENT_3D ( 'NONE', #76, #148, #73 ) ;
#155 = DIRECTION ( 'NONE',  ( -0.0000000000000000000, -0.0000000000000000000, -1.000000000000000000 ) ) ;
#156 = FACE_OUTER_BOUND ( 'NONE', #162, .T. ) ;
#157 = EDGE_CURVE ( 'NONE', #231, #139, #11, .T. ) ;
#158 = CALENDAR_DATE ( 2017, 30, 10 ) ;
#159 = MECHANICAL_CONTEXT ( 'NONE', #45, 'mechanical' ) ;
#160 = ADVANCED_BREP_SHAPE_REPRESENTATION ( 'Web Model 64402MX_43210', ( #51, #15 ), #49 ) ;
#161 = VECTOR ( 'NONE', #110, 1000.000000000000000 ) ;
#162 = EDGE_LOOP ( 'NONE', ( #90, #50, #132, #79 ) ) ;
#163 = APPLICATION_PROTOCOL_DEFINITION ( 'international standard', 'config_control_design', 1994, #128 ) ;
#164 = DIRECTION ( 'NONE',  ( -1.000000000000000000, 0.0000000000000000000, 0.0000000000000000000 ) ) ;
#165 = CARTESIAN_POINT ( 'NONE',  ( 12.49999999999999800, 12.50000000000000400, -4.750000000000000000 ) ) ;
#166 = DATE_AND_TIME ( #35, #187 ) ;
#167 = SECURITY_CLASSIFICATION_LEVEL ( 'unclassified' ) ;
#168 = LINE ( 'NONE', #208, #98 ) ;
#169 = VERTEX_POINT ( 'NONE', #91 ) ;
#170 =( LENGTH_UNIT ( ) NAMED_UNIT ( * ) SI_UNIT ( .MILLI., .METRE. ) );
#171 = PLANE ( 'NONE',  #215 ) ;
#172 = COORDINATED_UNIVERSAL_TIME_OFFSET ( 5, 0, .BEHIND. ) ;
#173 = CARTESIAN_POINT ( 'NONE',  ( 12.49999999999999800, -12.49999999999999600, 4.750000000000000000 ) ) ;
#174 = DIRECTION ( 'NONE',  ( -1.387778780781445700E-016, 1.000000000000000000, 0.0000000000000000000 ) ) ;
#175 = APPROVAL_PERSON_ORGANIZATION ( #26, #146, #124 ) ;
#176 = ORIENTED_EDGE ( 'NONE', *, *, #105, .F. ) ;
#177 = PRODUCT_DEFINITION_SHAPE ( 'NONE', 'NONE',  #185 ) ;
#178 = CC_DESIGN_APPROVAL ( #18, ( #185 ) ) ;
#179 = DIRECTION ( 'NONE',  ( 1.000000000000000000, 1.387778780781445700E-016, -0.0000000000000000000 ) ) ;
#180 = PERSON_AND_ORGANIZATION ( #217, #236 ) ;
#181 = CALENDAR_DATE ( 2017, 30, 10 ) ;
#182 = PERSON_AND_ORGANIZATION_ROLE ( 'creator' ) ;
#183 = ORIENTED_EDGE ( 'NONE', *, *, #2, .T. ) ;
#184 = APPROVAL_ROLE ( '' ) ;
#185 = PRODUCT_DEFINITION ( 'UNKNOWN', '', #118, #88 ) ;
#186 = CARTESIAN_POINT ( 'NONE',  ( -12.50000000000000200, -12.50000000000000000, 4.750000000000000000 ) ) ;
#187 = LOCAL_TIME ( 9, 10, 10.00000000000000000, #4 ) ;
#188 = ORIENTED_EDGE ( 'NONE', *, *, #157, .T. ) ;
#189 = DIRECTION ( 'NONE',  ( 0.0000000000000000000, 0.0000000000000000000, 1.000000000000000000 ) ) ;
#190 = APPLICATION_PROTOCOL_DEFINITION ( 'international standard', 'config_control_design', 1994, #45 ) ;
#191 = DIRECTION ( 'NONE',  ( 0.0000000000000000000, 1.000000000000000000, 0.0000000000000000000 ) ) ;
#192 = PLANE ( 'NONE',  #58 ) ;
#193 = FACE_OUTER_BOUND ( 'NONE', #137, .T. ) ;
#194 = EDGE_CURVE ( 'NONE', #1, #169, #106, .T. ) ;
#195 = ADVANCED_FACE ( 'NONE', ( #120 ), #92, .F. ) ;
#196 = CARTESIAN_POINT ( 'NONE',  ( -12.50000000000000200, -12.50000000000000000, -4.750000000000000000 ) ) ;
#197 = CC_DESIGN_PERSON_AND_ORGANIZATION_ASSIGNMENT ( #219, #54, ( #28 ) ) ;
#198 = PERSON_AND_ORGANIZATION ( #217, #236 ) ;
#199 = ORIENTED_EDGE ( 'NONE', *, *, #142, .T. ) ;
#200 = EDGE_CURVE ( 'NONE', #201, #94, #168, .T. ) ;
#201 = VERTEX_POINT ( 'NONE', #46 ) ;
#202 = PERSON_AND_ORGANIZATION_ROLE ( 'design_owner' ) ;
#203 = CARTESIAN_POINT ( 'NONE',  ( 12.49999999999999800, -12.49999999999999600, 4.750000000000000000 ) ) ;
#204 = DATE_AND_TIME ( #213, #144 ) ;
#205 = FACE_OUTER_BOUND ( 'NONE', #47, .T. ) ;
#206 = EDGE_CURVE ( 'NONE', #169, #139, #222, .T. ) ;
#207 = FACE_OUTER_BOUND ( 'NONE', #237, .T. ) ;
#208 = CARTESIAN_POINT ( 'NONE',  ( -12.50000000000000200, 12.50000000000000000, 4.750000000000000000 ) ) ;
#209 = LOCAL_TIME ( 9, 10, 10.00000000000000000, #126 ) ;
#210 = CC_DESIGN_PERSON_AND_ORGANIZATION_ASSIGNMENT ( #122, #182, ( #118 ) ) ;
#211 = CARTESIAN_POINT ( 'NONE',  ( 12.49999999999999800, 12.50000000000000400, 4.750000000000000000 ) ) ;
#212 = ADVANCED_FACE ( 'NONE', ( #193 ), #44, .T. ) ;
#213 = CALENDAR_DATE ( 2017, 30, 10 ) ;
#214 = VERTEX_POINT ( 'NONE', #43 ) ;
#215 = AXIS2_PLACEMENT_3D ( 'NONE', #8, #174, #149 ) ;
#216 = DIRECTION ( 'NONE',  ( -0.0000000000000000000, -1.000000000000000000, -0.0000000000000000000 ) ) ;
#217 = PERSON ( 'UNSPECIFIED', 'UNSPECIFIED', 'UNSPECIFIED', ('UNSPECIFIED'), ('UNSPECIFIED'), ('UNSPECIFIED') ) ;
#218 = LOCAL_TIME ( 9, 10, 10.00000000000000000, #172 ) ;
#219 = PERSON_AND_ORGANIZATION ( #217, #236 ) ;
#220 = ORIENTED_EDGE ( 'NONE', *, *, #80, .T. ) ;
#221 = PLANE ( 'NONE',  #121 ) ;
#222 = LINE ( 'NONE', #134, #151 ) ;
#223 = PRODUCT_RELATED_PRODUCT_CATEGORY ( 'detail', '', ( #34 ) ) ;
#224 = CALENDAR_DATE ( 2017, 30, 10 ) ;
#225 = ORIENTED_EDGE ( 'NONE', *, *, #200, .T. ) ;
#226 = CC_DESIGN_APPROVAL ( #36, ( #28 ) ) ;
#227 = DIRECTION ( 'NONE',  ( -0.0000000000000000000, -0.0000000000000000000, -1.000000000000000000 ) ) ;
#228 = CARTESIAN_POINT ( 'NONE',  ( -12.50000000000000200, -12.50000000000000000, 4.750000000000000000 ) ) ;
#229 = ORIENTED_EDGE ( 'NONE', *, *, #142, .F. ) ;
#230 = DIRECTION ( 'NONE',  ( 0.0000000000000000000, 0.0000000000000000000, -1.000000000000000000 ) ) ;
#231 = VERTEX_POINT ( 'NONE', #109 ) ;
#232 = CARTESIAN_POINT ( 'NONE',  ( 12.49999999999999800, -12.49999999999999600, -4.750000000000000000 ) ) ;
#233 = ORIENTED_EDGE ( 'NONE', *, *, #21, .T. ) ;
#234 = CARTESIAN_POINT ( 'NONE',  ( 12.49999999999999800, -12.49999999999999600, 4.750000000000000000 ) ) ;
#235 = EDGE_CURVE ( 'NONE', #1, #231, #107, .T. ) ;
#236 = ORGANIZATION ( 'UNSPECIFIED', 'UNSPECIFIED', '' ) ;
#237 = EDGE_LOOP ( 'NONE', ( #72, #37, #84, #108 ) ) ;
ENDSEC;
END-ISO-10303-21;
