ISO-10303-21;
HEADER;
FILE_DESCRIPTION (( 'STEP AP214' ),
    '1' );
FILE_NAME ('4596-E0W.STEP',
    '2009-12-21T17:12:01',
    ( ' ' ),
    ( ' ' ),
    'SwSTEP 2.0',
    'SolidWorks 2009',
    '' );
FILE_SCHEMA (( 'AUTOMOTIVE_DESIGN' ));
ENDSEC;

DATA;
#1 =( NAMED_UNIT ( * ) PLANE_ANGLE_UNIT ( ) SI_UNIT ( $, .RADIAN. ) );
#2 = UNCERTAINTY_MEASURE_WITH_UNIT (LENGTH_MEASURE( 1.000000000000000100E-005 ), #4, 'distance_accuracy_value', 'NONE');
#3 =( NAMED_UNIT ( * ) SI_UNIT ( $, .STERADIAN. ) SOLID_ANGLE_UNIT ( ) );
#4 =( LENGTH_UNIT ( ) NAMED_UNIT ( * ) SI_UNIT ( .MILLI., .METRE. ) );
#5 = CARTESIAN_POINT ( 'NONE',  ( 15.00000000000000000, 0.0000000000000000000, 4.308132045400366600 ) ) ;
#6 = LINE ( 'NONE', #5, #9 ) ;
#7 =( GEOMETRIC_REPRESENTATION_CONTEXT ( 3 ) GLOBAL_UNCERTAINTY_ASSIGNED_CONTEXT ( ( #2 ) ) GLOBAL_UNIT_ASSIGNED_CONTEXT ( ( #4, #1, #3 ) ) REPRESENTATION_CONTEXT ( 'NONE', 'WORKASPACE' ) );
#8 = DIRECTION ( 'NONE',  ( -0.0000000000000000000, -0.0000000000000000000, 1.000000000000000000 ) ) ;
#9 = VECTOR ( 'NONE', #8, 1000.000000000000000 ) ;
#10 = AXIS2_PLACEMENT_3D ( 'NONE', #23, #22, #19 ) ;
#11 = CARTESIAN_POINT ( 'NONE',  ( 0.0000000000000000000, 0.0000000000000000000, 4.308132045400366600 ) ) ;
#12 = CARTESIAN_POINT ( 'NONE',  ( 0.0000000000000000000, 0.0000000000000000000, -1.165057334048909000 ) ) ;
#13 = DIRECTION ( 'NONE',  ( -0.0000000000000000000, -0.0000000000000000000, 1.000000000000000000 ) ) ;
#14 = CARTESIAN_POINT ( 'NONE',  ( 15.00000000000000400, 0.0000000000000000000, -1.165057334048909000 ) ) ;
#15 = DIRECTION ( 'NONE',  ( 1.000000000000000000, 0.0000000000000000000, 0.0000000000000000000 ) ) ;
#16 = CIRCLE ( 'NONE', #10, 15.00000000000000200 ) ;
#17 = DIRECTION ( 'NONE',  ( 1.000000000000000000, 0.0000000000000000000, 0.0000000000000000000 ) ) ;
#18 = AXIS2_PLACEMENT_3D ( 'NONE', #11, #13, #17 ) ;
#19 = DIRECTION ( 'NONE',  ( 1.000000000000000000, 0.0000000000000000000, 0.0000000000000000000 ) ) ;
#20 = AXIS2_PLACEMENT_3D ( 'NONE', #12, #25, #15 ) ;
#21 = CIRCLE ( 'NONE', #20, 15.00000000000000200 ) ;
#22 = DIRECTION ( 'NONE',  ( -0.0000000000000000000, -0.0000000000000000000, 1.000000000000000000 ) ) ;
#23 = CARTESIAN_POINT ( 'NONE',  ( 0.0000000000000000000, 0.0000000000000000000, -1.165057334048909000 ) ) ;
#24 = CYLINDRICAL_SURFACE ( 'NONE', #18, 15.00000000000000000 ) ;
#25 = DIRECTION ( 'NONE',  ( -0.0000000000000000000, -0.0000000000000000000, 1.000000000000000000 ) ) ;
#26 = CARTESIAN_POINT ( 'NONE',  ( 0.0000000000000000000, 15.00000000000000400, -1.165057334048908100 ) ) ;
#27 = FILL_AREA_STYLE ('',( #37 ) ) ;
#28 = PRESENTATION_LAYER_ASSIGNMENT (  '', '', ( #31 ) ) ;
#29 = PRESENTATION_STYLE_ASSIGNMENT (( #41 ) ) ;
#30 = SURFACE_STYLE_FILL_AREA ( #27 ) ;
#31 = STYLED_ITEM ( 'NONE', ( #29 ), #236 ) ;
#32 =( NAMED_UNIT ( * ) PLANE_ANGLE_UNIT ( ) SI_UNIT ( $, .RADIAN. ) );
#33 =( NAMED_UNIT ( * ) SI_UNIT ( $, .STERADIAN. ) SOLID_ANGLE_UNIT ( ) );
#34 = UNCERTAINTY_MEASURE_WITH_UNIT (LENGTH_MEASURE( 1.000000000000000100E-005 ), #40, 'distance_accuracy_value', 'NONE');
#35 = COLOUR_RGB ( '',0.9568627450980391500, 0.9490196078431372100, 0.9607843137254902200 ) ;
#36 = MECHANICAL_DESIGN_GEOMETRIC_PRESENTATION_REPRESENTATION (  '', ( #31 ), #56 ) ;
#37 = FILL_AREA_STYLE_COLOUR ( '', #35 ) ;
#38 = FACE_OUTER_BOUND ( 'NONE', #237, .T. ) ;
#39 = SURFACE_SIDE_STYLE ('',( #30 ) ) ;
#40 =( LENGTH_UNIT ( ) NAMED_UNIT ( * ) SI_UNIT ( .MILLI., .METRE. ) );
#41 = SURFACE_STYLE_USAGE ( .BOTH. , #39 ) ;
#42 = SPHERICAL_SURFACE ( 'NONE', #47, 25.75000000000000400 ) ;
#43 = CARTESIAN_POINT ( 'NONE',  ( 0.0000000000000000000, 0.0000000000000000000, -1.165057334048909000 ) ) ;
#44 = AXIS2_PLACEMENT_3D ( 'NONE', #43, #55, #54 ) ;
#45 = CIRCLE ( 'NONE', #44, 15.00000000000000200 ) ;
#46 = CARTESIAN_POINT ( 'NONE',  ( 0.0000000000000000000, 0.0000000000000000000, -22.09499999999999900 ) ) ;
#47 = AXIS2_PLACEMENT_3D ( 'NONE', #46, #57, #58 ) ;
#48 = DIRECTION ( 'NONE',  ( 1.000000000000000000, 0.0000000000000000000, 0.0000000000000000000 ) ) ;
#49 = DIRECTION ( 'NONE',  ( -0.0000000000000000000, -0.0000000000000000000, 1.000000000000000000 ) ) ;
#50 = CARTESIAN_POINT ( 'NONE',  ( 0.0000000000000000000, 0.0000000000000000000, -3.655000000000000200 ) ) ;
#51 = AXIS2_PLACEMENT_3D ( 'NONE', #50, #49, #48 ) ;
#52 = CIRCLE ( 'NONE', #51, 15.00000000000000000 ) ;
#53 = CARTESIAN_POINT ( 'NONE',  ( -1.836909530733566300E-015, -15.00000000000000400, -1.165057334048908100 ) ) ;
#54 = DIRECTION ( 'NONE',  ( 1.000000000000000000, 0.0000000000000000000, 0.0000000000000000000 ) ) ;
#55 = DIRECTION ( 'NONE',  ( -0.0000000000000000000, -0.0000000000000000000, 1.000000000000000000 ) ) ;
#56 =( GEOMETRIC_REPRESENTATION_CONTEXT ( 3 ) GLOBAL_UNCERTAINTY_ASSIGNED_CONTEXT ( ( #34 ) ) GLOBAL_UNIT_ASSIGNED_CONTEXT ( ( #40, #32, #33 ) ) REPRESENTATION_CONTEXT ( 'NONE', 'WORKASPACE' ) );
#57 = DIRECTION ( 'NONE',  ( -1.000000000000000000, 0.0000000000000000000, 0.0000000000000000000 ) ) ;
#58 = DIRECTION ( 'NONE',  ( 0.0000000000000000000, 1.000000000000000000, 0.0000000000000000000 ) ) ;
#59 = UNCERTAINTY_MEASURE_WITH_UNIT (LENGTH_MEASURE( 1.000000000000000100E-005 ), #62, 'distance_accuracy_value', 'NONE');
#60 =( GEOMETRIC_REPRESENTATION_CONTEXT ( 3 ) GLOBAL_UNCERTAINTY_ASSIGNED_CONTEXT ( ( #59 ) ) GLOBAL_UNIT_ASSIGNED_CONTEXT ( ( #62, #73, #71 ) ) REPRESENTATION_CONTEXT ( 'NONE', 'WORKASPACE' ) );
#61 = STYLED_ITEM ( 'NONE', ( #63 ), #249 ) ;
#62 =( LENGTH_UNIT ( ) NAMED_UNIT ( * ) SI_UNIT ( .MILLI., .METRE. ) );
#63 = PRESENTATION_STYLE_ASSIGNMENT (( #67 ) ) ;
#64 = MECHANICAL_DESIGN_GEOMETRIC_PRESENTATION_REPRESENTATION (  '', ( #61 ), #60 ) ;
#65 = PRESENTATION_LAYER_ASSIGNMENT (  '', '', ( #61 ) ) ;
#66 = FILL_AREA_STYLE_COLOUR ( '', #74 ) ;
#67 = SURFACE_STYLE_USAGE ( .BOTH. , #69 ) ;
#68 = FACE_OUTER_BOUND ( 'NONE', #250, .T. ) ;
#69 = SURFACE_SIDE_STYLE ('',( #70 ) ) ;
#70 = SURFACE_STYLE_FILL_AREA ( #72 ) ;
#71 =( NAMED_UNIT ( * ) SI_UNIT ( $, .STERADIAN. ) SOLID_ANGLE_UNIT ( ) );
#72 = FILL_AREA_STYLE ('',( #66 ) ) ;
#73 =( NAMED_UNIT ( * ) PLANE_ANGLE_UNIT ( ) SI_UNIT ( $, .RADIAN. ) );
#74 = COLOUR_RGB ( '',0.9568627450980391500, 0.9490196078431372100, 0.9607843137254902200 ) ;
#75 =( GEOMETRIC_REPRESENTATION_CONTEXT ( 3 ) GLOBAL_UNCERTAINTY_ASSIGNED_CONTEXT ( ( #84 ) ) GLOBAL_UNIT_ASSIGNED_CONTEXT ( ( #76, #78, #85 ) ) REPRESENTATION_CONTEXT ( 'NONE', 'WORKASPACE' ) );
#76 =( LENGTH_UNIT ( ) NAMED_UNIT ( * ) SI_UNIT ( .MILLI., .METRE. ) );
#77 = PRESENTATION_STYLE_ASSIGNMENT (( #81 ) ) ;
#78 =( NAMED_UNIT ( * ) PLANE_ANGLE_UNIT ( ) SI_UNIT ( $, .RADIAN. ) );
#79 = STYLED_ITEM ( 'NONE', ( #77 ), #254 ) ;
#80 = AXIS2_PLACEMENT_3D ( 'NONE', #89, #86, #83 ) ;
#81 = SURFACE_STYLE_USAGE ( .BOTH. , #82 ) ;
#82 = SURFACE_SIDE_STYLE ('',( #90 ) ) ;
#83 = DIRECTION ( 'NONE',  ( 1.000000000000000000, 0.0000000000000000000, 0.0000000000000000000 ) ) ;
#84 = UNCERTAINTY_MEASURE_WITH_UNIT (LENGTH_MEASURE( 1.000000000000000100E-005 ), #76, 'distance_accuracy_value', 'NONE');
#85 =( NAMED_UNIT ( * ) SI_UNIT ( $, .STERADIAN. ) SOLID_ANGLE_UNIT ( ) );
#86 = DIRECTION ( 'NONE',  ( 0.0000000000000000000, -0.0000000000000000000, 1.000000000000000000 ) ) ;
#87 = FILL_AREA_STYLE_COLOUR ( '', #88 ) ;
#88 = COLOUR_RGB ( '',0.7960784313725489700, 0.8235294117647058400, 0.9372549019607843100 ) ;
#89 = CARTESIAN_POINT ( 'NONE',  ( 0.0000000000000000000, 1.342825215265072500E-015, -3.654999999999999800 ) ) ;
#90 = SURFACE_STYLE_FILL_AREA ( #91 ) ;
#91 = FILL_AREA_STYLE ('',( #87 ) ) ;
#92 = MECHANICAL_DESIGN_GEOMETRIC_PRESENTATION_REPRESENTATION (  '', ( #79 ), #75 ) ;
#93 = PRESENTATION_LAYER_ASSIGNMENT (  '', '', ( #79 ) ) ;
#94 = PLANE ( 'NONE',  #80 ) ;
#95 = DIRECTION ( 'NONE',  ( -0.0000000000000000000, -0.0000000000000000000, 1.000000000000000000 ) ) ;
#96 = CARTESIAN_POINT ( 'NONE',  ( 0.0000000000000000000, 0.0000000000000000000, 4.308132045400366600 ) ) ;
#97 = DIRECTION ( 'NONE',  ( 1.000000000000000000, 0.0000000000000000000, 0.0000000000000000000 ) ) ;
#98 =( LENGTH_UNIT ( ) NAMED_UNIT ( * ) SI_UNIT ( .MILLI., .METRE. ) );
#99 = PRESENTATION_LAYER_ASSIGNMENT (  '', '', ( #100 ) ) ;
#100 = STYLED_ITEM ( 'NONE', ( #103 ), #255 ) ;
#101 = SURFACE_STYLE_FILL_AREA ( #105 ) ;
#102 = COLOUR_RGB ( '',0.9568627450980391500, 0.9490196078431372100, 0.9607843137254902200 ) ;
#103 = PRESENTATION_STYLE_ASSIGNMENT (( #104 ) ) ;
#104 = SURFACE_STYLE_USAGE ( .BOTH. , #106 ) ;
#105 = FILL_AREA_STYLE ('',( #109 ) ) ;
#106 = SURFACE_SIDE_STYLE ('',( #101 ) ) ;
#107 = FACE_OUTER_BOUND ( 'NONE', #256, .T. ) ;
#108 = MECHANICAL_DESIGN_GEOMETRIC_PRESENTATION_REPRESENTATION (  '', ( #100 ), #111 ) ;
#109 = FILL_AREA_STYLE_COLOUR ( '', #102 ) ;
#110 = UNCERTAINTY_MEASURE_WITH_UNIT (LENGTH_MEASURE( 1.000000000000000100E-005 ), #98, 'distance_accuracy_value', 'NONE');
#111 =( GEOMETRIC_REPRESENTATION_CONTEXT ( 3 ) GLOBAL_UNCERTAINTY_ASSIGNED_CONTEXT ( ( #110 ) ) GLOBAL_UNIT_ASSIGNED_CONTEXT ( ( #98, #112, #116 ) ) REPRESENTATION_CONTEXT ( 'NONE', 'WORKASPACE' ) );
#112 =( NAMED_UNIT ( * ) PLANE_ANGLE_UNIT ( ) SI_UNIT ( $, .RADIAN. ) );
#113 = AXIS2_PLACEMENT_3D ( 'NONE', #96, #95, #97 ) ;
#114 = CYLINDRICAL_SURFACE ( 'NONE', #113, 15.00000000000000000 ) ;
#115 = ADVANCED_BREP_SHAPE_REPRESENTATION ( '4596-E0W', ( #254, #134 ), #122 ) ;
#116 =( NAMED_UNIT ( * ) SI_UNIT ( $, .STERADIAN. ) SOLID_ANGLE_UNIT ( ) );
#117 = CIRCLE ( 'NONE', #121, 15.00000000000000000 ) ;
#118 = DIRECTION ( 'NONE',  ( 1.000000000000000000, 0.0000000000000000000, 0.0000000000000000000 ) ) ;
#119 = DIRECTION ( 'NONE',  ( -0.0000000000000000000, -0.0000000000000000000, 1.000000000000000000 ) ) ;
#120 = CARTESIAN_POINT ( 'NONE',  ( 0.0000000000000000000, 0.0000000000000000000, -3.655000000000000200 ) ) ;
#121 = AXIS2_PLACEMENT_3D ( 'NONE', #120, #119, #118 ) ;
#122 =( GEOMETRIC_REPRESENTATION_CONTEXT ( 3 ) GLOBAL_UNCERTAINTY_ASSIGNED_CONTEXT ( ( #126 ) ) GLOBAL_UNIT_ASSIGNED_CONTEXT ( ( #123, #128, #125 ) ) REPRESENTATION_CONTEXT ( 'NONE', 'WORKASPACE' ) );
#123 =( LENGTH_UNIT ( ) NAMED_UNIT ( * ) SI_UNIT ( .MILLI., .METRE. ) );
#124 = CARTESIAN_POINT ( 'NONE',  ( 15.00000000000000000, 0.0000000000000000000, -3.655000000000000200 ) ) ;
#125 =( NAMED_UNIT ( * ) SI_UNIT ( $, .STERADIAN. ) SOLID_ANGLE_UNIT ( ) );
#126 = UNCERTAINTY_MEASURE_WITH_UNIT (LENGTH_MEASURE( 1.000000000000000100E-005 ), #123, 'distance_accuracy_value', 'NONE');
#127 = CARTESIAN_POINT ( 'NONE',  ( -15.00000000000000000, 1.836909530733565900E-015, -3.655000000000000200 ) ) ;
#128 =( NAMED_UNIT ( * ) PLANE_ANGLE_UNIT ( ) SI_UNIT ( $, .RADIAN. ) );
#129 = UNCERTAINTY_MEASURE_WITH_UNIT (LENGTH_MEASURE( 1.000000000000000100E-005 ), #145, 'distance_accuracy_value', 'NONE');
#130 =( NAMED_UNIT ( * ) SI_UNIT ( $, .STERADIAN. ) SOLID_ANGLE_UNIT ( ) );
#131 =( NAMED_UNIT ( * ) PLANE_ANGLE_UNIT ( ) SI_UNIT ( $, .RADIAN. ) );
#132 = DIRECTION ( 'NONE',  ( 1.000000000000000000, 0.0000000000000000000, 0.0000000000000000000 ) ) ;
#133 = DIRECTION ( 'NONE',  ( 0.0000000000000000000, 0.0000000000000000000, 1.000000000000000000 ) ) ;
#134 = AXIS2_PLACEMENT_3D ( 'NONE', #135, #133, #132 ) ;
#135 = CARTESIAN_POINT ( 'NONE',  ( 0.0000000000000000000, 0.0000000000000000000, 0.0000000000000000000 ) ) ;
#136 =( GEOMETRIC_REPRESENTATION_CONTEXT ( 3 ) GLOBAL_UNCERTAINTY_ASSIGNED_CONTEXT ( ( #129 ) ) GLOBAL_UNIT_ASSIGNED_CONTEXT ( ( #145, #131, #130 ) ) REPRESENTATION_CONTEXT ( 'NONE', 'WORKASPACE' ) );
#137 = STYLED_ITEM ( 'NONE', ( #138 ), #115 ) ;
#138 = PRESENTATION_STYLE_ASSIGNMENT (( #139 ) ) ;
#139 = SURFACE_STYLE_USAGE ( .BOTH. , #140 ) ;
#140 = SURFACE_SIDE_STYLE ('',( #141 ) ) ;
#141 = SURFACE_STYLE_FILL_AREA ( #142 ) ;
#142 = FILL_AREA_STYLE ('',( #143 ) ) ;
#143 = FILL_AREA_STYLE_COLOUR ( '', #144 ) ;
#144 = COLOUR_RGB ( '',0.7960784313725489700, 0.8235294117647058400, 0.9372549019607843100 ) ;
#145 =( LENGTH_UNIT ( ) NAMED_UNIT ( * ) SI_UNIT ( .MILLI., .METRE. ) );
#146 = MECHANICAL_DESIGN_GEOMETRIC_PRESENTATION_REPRESENTATION (  '', ( #137 ), #136 ) ;
#147 = PRESENTATION_LAYER_ASSIGNMENT (  '', '', ( #137 ) ) ;
#148 = PRODUCT_DEFINITION_SHAPE ( 'NONE', 'NONE',  #151 ) ;
#149 = PRODUCT_RELATED_PRODUCT_CATEGORY ( 'part', '', ( #156 ) ) ;
#150 = PRODUCT_DEFINITION_FORMATION_WITH_SPECIFIED_SOURCE ( 'ANY', '', #156, .NOT_KNOWN. ) ;
#151 = PRODUCT_DEFINITION ( 'UNKNOWN', '', #150, #152 ) ;
#152 = PRODUCT_DEFINITION_CONTEXT ( 'detailed design', #154, 'design' ) ;
#153 = APPLICATION_PROTOCOL_DEFINITION ( 'draft international standard', 'automotive_design', 1998, #154 ) ;
#154 = APPLICATION_CONTEXT ( 'automotive_design' ) ;
#155 = SHAPE_DEFINITION_REPRESENTATION ( #148, #115 ) ;
#156 = PRODUCT ( '4596-E0W', '4596-E0W', '', ( #157 ) ) ;
#157 = PRODUCT_CONTEXT ( 'NONE', #159, 'mechanical' ) ;
#158 = APPLICATION_PROTOCOL_DEFINITION ( 'draft international standard', 'automotive_design', 1998, #159 ) ;
#159 = APPLICATION_CONTEXT ( 'automotive_design' ) ;
#160 = MECHANICAL_DESIGN_GEOMETRIC_PRESENTATION_REPRESENTATION (  '', ( #162 ), #7 ) ;
#161 = PRESENTATION_LAYER_ASSIGNMENT (  '', '', ( #162 ) ) ;
#162 = STYLED_ITEM ( 'NONE', ( #163 ), #228 ) ;
#163 = PRESENTATION_STYLE_ASSIGNMENT (( #164 ) ) ;
#164 = SURFACE_STYLE_USAGE ( .BOTH. , #165 ) ;
#165 = SURFACE_SIDE_STYLE ('',( #166 ) ) ;
#166 = SURFACE_STYLE_FILL_AREA ( #167 ) ;
#167 = FILL_AREA_STYLE ('',( #174 ) ) ;
#168 = COLOUR_RGB ( '',0.9568627450980391500, 0.9490196078431372100, 0.9607843137254902200 ) ;
#169 = FACE_OUTER_BOUND ( 'NONE', #242, .T. ) ;
#170 = DIRECTION ( 'NONE',  ( 1.000000000000000000, 0.0000000000000000000, 0.0000000000000000000 ) ) ;
#171 = DIRECTION ( 'NONE',  ( -0.0000000000000000000, -0.0000000000000000000, 1.000000000000000000 ) ) ;
#172 = CARTESIAN_POINT ( 'NONE',  ( 0.0000000000000000000, 0.0000000000000000000, -1.165057334048909000 ) ) ;
#173 = AXIS2_PLACEMENT_3D ( 'NONE', #172, #171, #170 ) ;
#174 = FILL_AREA_STYLE_COLOUR ( '', #168 ) ;
#175 = DIRECTION ( 'NONE',  ( 0.0000000000000000000, 1.000000000000000000, 0.0000000000000000000 ) ) ;
#176 = DIRECTION ( 'NONE',  ( -1.000000000000000000, 0.0000000000000000000, 0.0000000000000000000 ) ) ;
#177 = CARTESIAN_POINT ( 'NONE',  ( 0.0000000000000000000, 0.0000000000000000000, -22.09499999999999900 ) ) ;
#178 = AXIS2_PLACEMENT_3D ( 'NONE', #177, #176, #175 ) ;
#179 = CIRCLE ( 'NONE', #173, 15.00000000000000200 ) ;
#180 = SPHERICAL_SURFACE ( 'NONE', #178, 25.75000000000000400 ) ;
#181 =( GEOMETRIC_REPRESENTATION_CONTEXT ( 3 ) GLOBAL_UNCERTAINTY_ASSIGNED_CONTEXT ( ( #182 ) ) GLOBAL_UNIT_ASSIGNED_CONTEXT ( ( #185, #184, #183 ) ) REPRESENTATION_CONTEXT ( 'NONE', 'WORKASPACE' ) );
#182 = UNCERTAINTY_MEASURE_WITH_UNIT (LENGTH_MEASURE( 1.000000000000000100E-005 ), #185, 'distance_accuracy_value', 'NONE');
#183 =( NAMED_UNIT ( * ) SI_UNIT ( $, .STERADIAN. ) SOLID_ANGLE_UNIT ( ) );
#184 =( NAMED_UNIT ( * ) PLANE_ANGLE_UNIT ( ) SI_UNIT ( $, .RADIAN. ) );
#185 =( LENGTH_UNIT ( ) NAMED_UNIT ( * ) SI_UNIT ( .MILLI., .METRE. ) );
#186 = MECHANICAL_DESIGN_GEOMETRIC_PRESENTATION_REPRESENTATION (  '', ( #188 ), #181 ) ;
#187 = PRESENTATION_LAYER_ASSIGNMENT (  '', '', ( #188 ) ) ;
#188 = STYLED_ITEM ( 'NONE', ( #192 ), #221 ) ;
#189 = EDGE_CURVE ( 'NONE', #260, #190, #215, .T. ) ;
#190 = VERTEX_POINT ( 'NONE', #211 ) ;
#191 = ORIENTED_EDGE ( 'NONE', *, *, #229, .F. ) ;
#192 = PRESENTATION_STYLE_ASSIGNMENT (( #193 ) ) ;
#193 = SURFACE_STYLE_USAGE ( .BOTH. , #194 ) ;
#194 = SURFACE_SIDE_STYLE ('',( #195 ) ) ;
#195 = SURFACE_STYLE_FILL_AREA ( #196 ) ;
#196 = FILL_AREA_STYLE ('',( #204 ) ) ;
#197 = COLOUR_RGB ( '',0.9568627450980391500, 0.9490196078431372100, 0.9607843137254902200 ) ;
#198 = FACE_OUTER_BOUND ( 'NONE', #222, .T. ) ;
#199 = DIRECTION ( 'NONE',  ( 0.0000000000000000000, 0.0000000000000000000, -1.000000000000000000 ) ) ;
#200 = DIRECTION ( 'NONE',  ( 1.000000000000000000, 0.0000000000000000000, 0.0000000000000000000 ) ) ;
#201 = CARTESIAN_POINT ( 'NONE',  ( 0.0000000000000000000, 0.0000000000000000000, -22.09499999999999900 ) ) ;
#202 = AXIS2_PLACEMENT_3D ( 'NONE', #201, #200, #199 ) ;
#203 = CIRCLE ( 'NONE', #202, 25.75000000000000000 ) ;
#204 = FILL_AREA_STYLE_COLOUR ( '', #197 ) ;
#205 = CARTESIAN_POINT ( 'NONE',  ( 0.0000000000000000000, 1.576680680546310900E-015, 3.655000000000002000 ) ) ;
#206 = DIRECTION ( 'NONE',  ( -1.224606353822377300E-016, -1.000000000000000000, 0.0000000000000000000 ) ) ;
#207 = DIRECTION ( 'NONE',  ( -1.000000000000000000, 1.224606353822377300E-016, 0.0000000000000000000 ) ) ;
#208 = CARTESIAN_POINT ( 'NONE',  ( 0.0000000000000000000, 0.0000000000000000000, -22.09499999999999900 ) ) ;
#209 = AXIS2_PLACEMENT_3D ( 'NONE', #208, #207, #206 ) ;
#210 = CIRCLE ( 'NONE', #209, 25.75000000000000400 ) ;
#211 = CARTESIAN_POINT ( 'NONE',  ( -15.00000000000000400, 1.836909530733566300E-015, -1.165057334048909000 ) ) ;
#212 = DIRECTION ( 'NONE',  ( -0.0000000000000000000, -0.0000000000000000000, 1.000000000000000000 ) ) ;
#213 = VECTOR ( 'NONE', #212, 1000.000000000000000 ) ;
#214 = CARTESIAN_POINT ( 'NONE',  ( -15.00000000000000000, 1.836909530733565900E-015, 4.308132045400366600 ) ) ;
#215 = LINE ( 'NONE', #214, #213 ) ;
#216 = ORIENTED_EDGE ( 'NONE', *, *, #217, .T. ) ;
#217 = EDGE_CURVE ( 'NONE', #241, #218, #210, .T. ) ;
#218 = VERTEX_POINT ( 'NONE', #205 ) ;
#219 = ORIENTED_EDGE ( 'NONE', *, *, #220, .F. ) ;
#220 = EDGE_CURVE ( 'NONE', #230, #218, #203, .T. ) ;
#221 = ADVANCED_FACE ( 'NONE', ( #198 ), #180, .T. ) ;
#222 = EDGE_LOOP ( 'NONE', ( #223, #224, #226, #227 ) ) ;
#223 = ORIENTED_EDGE ( 'NONE', *, *, #217, .F. ) ;
#224 = ORIENTED_EDGE ( 'NONE', *, *, #225, .T. ) ;
#225 = EDGE_CURVE ( 'NONE', #241, #233, #179, .T. ) ;
#226 = ORIENTED_EDGE ( 'NONE', *, *, #232, .T. ) ;
#227 = ORIENTED_EDGE ( 'NONE', *, *, #220, .T. ) ;
#228 = ADVANCED_FACE ( 'NONE', ( #169 ), #24, .T. ) ;
#229 = EDGE_CURVE ( 'NONE', #230, #190, #16, .T. ) ;
#230 = VERTEX_POINT ( 'NONE', #26 ) ;
#231 = ORIENTED_EDGE ( 'NONE', *, *, #232, .F. ) ;
#232 = EDGE_CURVE ( 'NONE', #233, #230, #21, .T. ) ;
#233 = VERTEX_POINT ( 'NONE', #14 ) ;
#234 = ORIENTED_EDGE ( 'NONE', *, *, #235, .F. ) ;
#235 = EDGE_CURVE ( 'NONE', #259, #233, #6, .T. ) ;
#236 = ADVANCED_FACE ( 'NONE', ( #38 ), #42, .T. ) ;
#237 = EDGE_LOOP ( 'NONE', ( #238, #239, #216, #219 ) ) ;
#238 = ORIENTED_EDGE ( 'NONE', *, *, #229, .T. ) ;
#239 = ORIENTED_EDGE ( 'NONE', *, *, #240, .T. ) ;
#240 = EDGE_CURVE ( 'NONE', #190, #241, #45, .T. ) ;
#241 = VERTEX_POINT ( 'NONE', #53 ) ;
#242 = EDGE_LOOP ( 'NONE', ( #243, #244, #246, #247, #248 ) ) ;
#243 = ORIENTED_EDGE ( 'NONE', *, *, #189, .F. ) ;
#244 = ORIENTED_EDGE ( 'NONE', *, *, #245, .T. ) ;
#245 = EDGE_CURVE ( 'NONE', #260, #259, #52, .T. ) ;
#246 = ORIENTED_EDGE ( 'NONE', *, *, #235, .T. ) ;
#247 = ORIENTED_EDGE ( 'NONE', *, *, #225, .F. ) ;
#248 = ORIENTED_EDGE ( 'NONE', *, *, #240, .F. ) ;
#249 = ADVANCED_FACE ( 'NONE', ( #68 ), #94, .F. ) ;
#250 = EDGE_LOOP ( 'NONE', ( #251, #252 ) ) ;
#251 = ORIENTED_EDGE ( 'NONE', *, *, #258, .F. ) ;
#252 = ORIENTED_EDGE ( 'NONE', *, *, #245, .F. ) ;
#253 = CLOSED_SHELL ( 'NONE', ( #255, #236, #221, #228, #249 ) ) ;
#254 = MANIFOLD_SOLID_BREP ( 'NONE', #253 ) ;
#255 = ADVANCED_FACE ( 'NONE', ( #107 ), #114, .T. ) ;
#256 = EDGE_LOOP ( 'NONE', ( #257, #261, #191, #231, #234 ) ) ;
#257 = ORIENTED_EDGE ( 'NONE', *, *, #258, .T. ) ;
#258 = EDGE_CURVE ( 'NONE', #259, #260, #117, .T. ) ;
#259 = VERTEX_POINT ( 'NONE', #124 ) ;
#260 = VERTEX_POINT ( 'NONE', #127 ) ;
#261 = ORIENTED_EDGE ( 'NONE', *, *, #189, .T. ) ;
ENDSEC;
END-ISO-10303-21;
