ISO-10303-21;
HEADER;
FILE_DESCRIPTION (( 'STEP AP214' ),
    '1' );
FILE_NAME ('4496-E0W.STEP',
    '2009-12-21T17:06:43',
    ( ' ' ),
    ( ' ' ),
    'SwSTEP 2.0',
    'SolidWorks 2009',
    '' );
FILE_SCHEMA (( 'AUTOMOTIVE_DESIGN' ));
ENDSEC;

DATA;
#1 = DIRECTION ( 'NONE',  ( 1.000000000000000000, 0.0000000000000000000, 0.0000000000000000000 ) ) ;
#2 =( NAMED_UNIT ( * ) SI_UNIT ( $, .STERADIAN. ) SOLID_ANGLE_UNIT ( ) );
#3 =( NAMED_UNIT ( * ) PLANE_ANGLE_UNIT ( ) SI_UNIT ( $, .RADIAN. ) );
#4 =( LENGTH_UNIT ( ) NAMED_UNIT ( * ) SI_UNIT ( .MILLI., .METRE. ) );
#5 = MECHANICAL_DESIGN_GEOMETRIC_PRESENTATION_REPRESENTATION (  '', ( #7 ), #94 ) ;
#6 = PRESENTATION_LAYER_ASSIGNMENT (  '', '', ( #7 ) ) ;
#7 = STYLED_ITEM ( 'NONE', ( #8 ), #146 ) ;
#8 = PRESENTATION_STYLE_ASSIGNMENT (( #9 ) ) ;
#9 = SURFACE_STYLE_USAGE ( .BOTH. , #10 ) ;
#10 = SURFACE_SIDE_STYLE ('',( #11 ) ) ;
#11 = SURFACE_STYLE_FILL_AREA ( #12 ) ;
#12 = FILL_AREA_STYLE ('',( #13 ) ) ;
#13 = FILL_AREA_STYLE_COLOUR ( '', #14 ) ;
#14 = COLOUR_RGB ( '',0.9568627450980391500, 0.9490196078431372100, 0.9607843137254902200 ) ;
#15 = EDGE_CURVE ( 'NONE', #160, #16, #136, .T. ) ;
#16 = VERTEX_POINT ( 'NONE', #131 ) ;
#17 = ORIENTED_EDGE ( 'NONE', *, *, #18, .F. ) ;
#18 = EDGE_CURVE ( 'NONE', #33, #16, #72, .T. ) ;
#19 = ADVANCED_FACE ( 'NONE', ( #73 ), #109, .T. ) ;
#20 = EDGE_LOOP ( 'NONE', ( #142, #139, #140, #153 ) ) ;
#21 = MANIFOLD_SOLID_BREP ( 'NONE', #149 ) ;
#22 = ADVANCED_FACE ( 'NONE', ( #124 ), #171, .T. ) ;
#23 = EDGE_LOOP ( 'NONE', ( #24, #28, #31, #34, #37 ) ) ;
#24 = ORIENTED_EDGE ( 'NONE', *, *, #25, .T. ) ;
#25 = EDGE_CURVE ( 'NONE', #26, #27, #170, .T. ) ;
#26 = VERTEX_POINT ( 'NONE', #89 ) ;
#27 = VERTEX_POINT ( 'NONE', #88 ) ;
#28 = ORIENTED_EDGE ( 'NONE', *, *, #30, .T. ) ;
#29 = VERTEX_POINT ( 'NONE', #87 ) ;
#30 = EDGE_CURVE ( 'NONE', #27, #29, #86, .T. ) ;
#31 = ORIENTED_EDGE ( 'NONE', *, *, #32, .F. ) ;
#32 = EDGE_CURVE ( 'NONE', #33, #29, #82, .T. ) ;
#33 = VERTEX_POINT ( 'NONE', #77 ) ;
#34 = ORIENTED_EDGE ( 'NONE', *, *, #35, .F. ) ;
#35 = EDGE_CURVE ( 'NONE', #36, #33, #76, .T. ) ;
#36 = VERTEX_POINT ( 'NONE', #50 ) ;
#37 = ORIENTED_EDGE ( 'NONE', *, *, #155, .F. ) ;
#38 = EDGE_LOOP ( 'NONE', ( #157, #158, #161, #17 ) ) ;
#39 = DIRECTION ( 'NONE',  ( 1.000000000000000000, 0.0000000000000000000, 0.0000000000000000000 ) ) ;
#40 = DIRECTION ( 'NONE',  ( -0.0000000000000000000, -0.0000000000000000000, 1.000000000000000000 ) ) ;
#41 = CARTESIAN_POINT ( 'NONE',  ( 0.0000000000000000000, 0.0000000000000000000, 0.3649300878960084500 ) ) ;
#42 = AXIS2_PLACEMENT_3D ( 'NONE', #41, #40, #39 ) ;
#43 = CIRCLE ( 'NONE', #42, 12.69999999999999900 ) ;
#44 = FACE_OUTER_BOUND ( 'NONE', #152, .T. ) ;
#45 = DIRECTION ( 'NONE',  ( 1.000000000000000000, 0.0000000000000000000, 0.0000000000000000000 ) ) ;
#46 = DIRECTION ( 'NONE',  ( -0.0000000000000000000, -0.0000000000000000000, 1.000000000000000000 ) ) ;
#47 = CARTESIAN_POINT ( 'NONE',  ( 0.0000000000000000000, 0.0000000000000000000, -1.629999999999999400 ) ) ;
#48 = AXIS2_PLACEMENT_3D ( 'NONE', #47, #46, #45 ) ;
#49 = CIRCLE ( 'NONE', #48, 12.69999999999999900 ) ;
#50 = CARTESIAN_POINT ( 'NONE',  ( 12.69999999999999900, 0.0000000000000000000, 0.3649300878960084500 ) ) ;
#51 = DIRECTION ( 'NONE',  ( 1.000000000000000000, 0.0000000000000000000, 0.0000000000000000000 ) ) ;
#52 = DIRECTION ( 'NONE',  ( -0.0000000000000000000, -0.0000000000000000000, 1.000000000000000000 ) ) ;
#53 =( GEOMETRIC_REPRESENTATION_CONTEXT ( 3 ) GLOBAL_UNCERTAINTY_ASSIGNED_CONTEXT ( ( #54 ) ) GLOBAL_UNIT_ASSIGNED_CONTEXT ( ( #57, #56, #55 ) ) REPRESENTATION_CONTEXT ( 'NONE', 'WORKASPACE' ) );
#54 = UNCERTAINTY_MEASURE_WITH_UNIT (LENGTH_MEASURE( 1.000000000000000100E-005 ), #57, 'distance_accuracy_value', 'NONE');
#55 =( NAMED_UNIT ( * ) SI_UNIT ( $, .STERADIAN. ) SOLID_ANGLE_UNIT ( ) );
#56 =( NAMED_UNIT ( * ) PLANE_ANGLE_UNIT ( ) SI_UNIT ( $, .RADIAN. ) );
#57 =( LENGTH_UNIT ( ) NAMED_UNIT ( * ) SI_UNIT ( .MILLI., .METRE. ) );
#58 = MECHANICAL_DESIGN_GEOMETRIC_PRESENTATION_REPRESENTATION (  '', ( #60 ), #53 ) ;
#59 = PRESENTATION_LAYER_ASSIGNMENT (  '', '', ( #60 ) ) ;
#60 = STYLED_ITEM ( 'NONE', ( #61 ), #19 ) ;
#61 = PRESENTATION_STYLE_ASSIGNMENT (( #62 ) ) ;
#62 = SURFACE_STYLE_USAGE ( .BOTH. , #63 ) ;
#63 = SURFACE_SIDE_STYLE ('',( #64 ) ) ;
#64 = SURFACE_STYLE_FILL_AREA ( #65 ) ;
#65 = FILL_AREA_STYLE ('',( #66 ) ) ;
#66 = FILL_AREA_STYLE_COLOUR ( '', #67 ) ;
#67 = COLOUR_RGB ( '',0.9568627450980391500, 0.9490196078431372100, 0.9607843137254902200 ) ;
#68 = DIRECTION ( 'NONE',  ( 0.0000000000000000000, 0.0000000000000000000, -1.000000000000000000 ) ) ;
#69 = DIRECTION ( 'NONE',  ( 1.000000000000000000, 0.0000000000000000000, 0.0000000000000000000 ) ) ;
#70 = CARTESIAN_POINT ( 'NONE',  ( 0.0000000000000000000, 0.0000000000000000000, -62.74999999999998600 ) ) ;
#71 = AXIS2_PLACEMENT_3D ( 'NONE', #70, #69, #68 ) ;
#72 = CIRCLE ( 'NONE', #71, 64.37999999999998100 ) ;
#73 = FACE_OUTER_BOUND ( 'NONE', #20, .T. ) ;
#74 = CARTESIAN_POINT ( 'NONE',  ( 0.0000000000000000000, 0.0000000000000000000, 0.3649300878960084500 ) ) ;
#75 = AXIS2_PLACEMENT_3D ( 'NONE', #74, #52, #51 ) ;
#76 = CIRCLE ( 'NONE', #75, 12.69999999999999900 ) ;
#77 = CARTESIAN_POINT ( 'NONE',  ( 0.0000000000000000000, 12.69999999999999400, 0.3649300878960088900 ) ) ;
#78 = DIRECTION ( 'NONE',  ( 1.000000000000000000, 0.0000000000000000000, 0.0000000000000000000 ) ) ;
#79 = DIRECTION ( 'NONE',  ( -0.0000000000000000000, -0.0000000000000000000, 1.000000000000000000 ) ) ;
#80 = CARTESIAN_POINT ( 'NONE',  ( 0.0000000000000000000, 0.0000000000000000000, 0.3649300878960084500 ) ) ;
#81 = AXIS2_PLACEMENT_3D ( 'NONE', #80, #79, #78 ) ;
#82 = CIRCLE ( 'NONE', #81, 12.69999999999999900 ) ;
#83 = DIRECTION ( 'NONE',  ( -0.0000000000000000000, -0.0000000000000000000, 1.000000000000000000 ) ) ;
#84 = VECTOR ( 'NONE', #83, 1000.000000000000000 ) ;
#85 = CARTESIAN_POINT ( 'NONE',  ( -12.69999999999999900, 1.555250069354419100E-015, 4.308132045400366600 ) ) ;
#86 = LINE ( 'NONE', #85, #84 ) ;
#87 = CARTESIAN_POINT ( 'NONE',  ( -12.69999999999999900, 1.555250069354419100E-015, 0.3649300878960084500 ) ) ;
#88 = CARTESIAN_POINT ( 'NONE',  ( -12.69999999999999900, 1.555250069354419100E-015, -1.629999999999999400 ) ) ;
#89 = CARTESIAN_POINT ( 'NONE',  ( 12.69999999999999900, 0.0000000000000000000, -1.629999999999999400 ) ) ;
#90 = DIRECTION ( 'NONE',  ( 0.0000000000000000000, -0.0000000000000000000, 1.000000000000000000 ) ) ;
#91 = CARTESIAN_POINT ( 'NONE',  ( 0.0000000000000000000, 5.988522847830557000E-016, -1.629999999999999900 ) ) ;
#92 = AXIS2_PLACEMENT_3D ( 'NONE', #91, #90, #1 ) ;
#93 = PLANE ( 'NONE',  #92 ) ;
#94 =( GEOMETRIC_REPRESENTATION_CONTEXT ( 3 ) GLOBAL_UNCERTAINTY_ASSIGNED_CONTEXT ( ( #95 ) ) GLOBAL_UNIT_ASSIGNED_CONTEXT ( ( #4, #3, #2 ) ) REPRESENTATION_CONTEXT ( 'NONE', 'WORKASPACE' ) );
#95 = UNCERTAINTY_MEASURE_WITH_UNIT (LENGTH_MEASURE( 1.000000000000000100E-005 ), #4, 'distance_accuracy_value', 'NONE');
#96 = PRESENTATION_LAYER_ASSIGNMENT (  '', '', ( #97 ) ) ;
#97 = STYLED_ITEM ( 'NONE', ( #98 ), #21 ) ;
#98 = PRESENTATION_STYLE_ASSIGNMENT (( #99 ) ) ;
#99 = SURFACE_STYLE_USAGE ( .BOTH. , #100 ) ;
#100 = SURFACE_SIDE_STYLE ('',( #101 ) ) ;
#101 = SURFACE_STYLE_FILL_AREA ( #102 ) ;
#102 = FILL_AREA_STYLE ('',( #108 ) ) ;
#103 = DIRECTION ( 'NONE',  ( 0.0000000000000000000, 1.000000000000000000, 0.0000000000000000000 ) ) ;
#104 = DIRECTION ( 'NONE',  ( -1.000000000000000000, 0.0000000000000000000, 0.0000000000000000000 ) ) ;
#105 = CARTESIAN_POINT ( 'NONE',  ( 0.0000000000000000000, 0.0000000000000000000, -62.74999999999998600 ) ) ;
#106 = AXIS2_PLACEMENT_3D ( 'NONE', #105, #104, #103 ) ;
#107 = COLOUR_RGB ( '',0.7960784313725489700, 0.8235294117647058400, 0.9372549019607843100 ) ;
#108 = FILL_AREA_STYLE_COLOUR ( '', #107 ) ;
#109 = SPHERICAL_SURFACE ( 'NONE', #106, 64.37999999999999500 ) ;
#110 = UNCERTAINTY_MEASURE_WITH_UNIT (LENGTH_MEASURE( 1.000000000000000100E-005 ), #113, 'distance_accuracy_value', 'NONE');
#111 =( NAMED_UNIT ( * ) SI_UNIT ( $, .STERADIAN. ) SOLID_ANGLE_UNIT ( ) );
#112 =( NAMED_UNIT ( * ) PLANE_ANGLE_UNIT ( ) SI_UNIT ( $, .RADIAN. ) );
#113 =( LENGTH_UNIT ( ) NAMED_UNIT ( * ) SI_UNIT ( .MILLI., .METRE. ) );
#114 = MECHANICAL_DESIGN_GEOMETRIC_PRESENTATION_REPRESENTATION (  '', ( #116 ), #172 ) ;
#115 = PRESENTATION_LAYER_ASSIGNMENT (  '', '', ( #116 ) ) ;
#116 = STYLED_ITEM ( 'NONE', ( #117 ), #22 ) ;
#117 = PRESENTATION_STYLE_ASSIGNMENT (( #118 ) ) ;
#118 = SURFACE_STYLE_USAGE ( .BOTH. , #119 ) ;
#119 = SURFACE_SIDE_STYLE ('',( #120 ) ) ;
#120 = SURFACE_STYLE_FILL_AREA ( #121 ) ;
#121 = FILL_AREA_STYLE ('',( #122 ) ) ;
#122 = FILL_AREA_STYLE_COLOUR ( '', #123 ) ;
#123 = COLOUR_RGB ( '',0.9568627450980391500, 0.9490196078431372100, 0.9607843137254902200 ) ;
#124 = FACE_OUTER_BOUND ( 'NONE', #23, .T. ) ;
#125 =( GEOMETRIC_REPRESENTATION_CONTEXT ( 3 ) GLOBAL_UNCERTAINTY_ASSIGNED_CONTEXT ( ( #126 ) ) GLOBAL_UNIT_ASSIGNED_CONTEXT ( ( #129, #128, #127 ) ) REPRESENTATION_CONTEXT ( 'NONE', 'WORKASPACE' ) );
#126 = UNCERTAINTY_MEASURE_WITH_UNIT (LENGTH_MEASURE( 1.000000000000000100E-005 ), #129, 'distance_accuracy_value', 'NONE');
#127 =( NAMED_UNIT ( * ) SI_UNIT ( $, .STERADIAN. ) SOLID_ANGLE_UNIT ( ) );
#128 =( NAMED_UNIT ( * ) PLANE_ANGLE_UNIT ( ) SI_UNIT ( $, .RADIAN. ) );
#129 =( LENGTH_UNIT ( ) NAMED_UNIT ( * ) SI_UNIT ( .MILLI., .METRE. ) );
#130 = MECHANICAL_DESIGN_GEOMETRIC_PRESENTATION_REPRESENTATION (  '', ( #97 ), #125 ) ;
#131 = CARTESIAN_POINT ( 'NONE',  ( 0.0000000000000000000, 3.942007852954232000E-015, 1.630000000000006600 ) ) ;
#132 = DIRECTION ( 'NONE',  ( -1.224606353822377300E-016, -1.000000000000000000, 0.0000000000000000000 ) ) ;
#133 = DIRECTION ( 'NONE',  ( -1.000000000000000000, 1.224606353822377300E-016, 0.0000000000000000000 ) ) ;
#134 = CARTESIAN_POINT ( 'NONE',  ( 0.0000000000000000000, 0.0000000000000000000, -62.74999999999998600 ) ) ;
#135 = AXIS2_PLACEMENT_3D ( 'NONE', #134, #133, #132 ) ;
#136 = CIRCLE ( 'NONE', #135, 64.37999999999999500 ) ;
#137 = EDGE_CURVE ( 'NONE', #27, #26, #49, .T. ) ;
#138 = ORIENTED_EDGE ( 'NONE', *, *, #155, .T. ) ;
#139 = ORIENTED_EDGE ( 'NONE', *, *, #144, .T. ) ;
#140 = ORIENTED_EDGE ( 'NONE', *, *, #35, .T. ) ;
#141 = EDGE_LOOP ( 'NONE', ( #143, #150, #138, #151, #145 ) ) ;
#142 = ORIENTED_EDGE ( 'NONE', *, *, #15, .F. ) ;
#143 = ORIENTED_EDGE ( 'NONE', *, *, #30, .F. ) ;
#144 = EDGE_CURVE ( 'NONE', #160, #36, #43, .T. ) ;
#145 = ORIENTED_EDGE ( 'NONE', *, *, #159, .F. ) ;
#146 = ADVANCED_FACE ( 'NONE', ( #44 ), #93, .F. ) ;
#147 = ORIENTED_EDGE ( 'NONE', *, *, #25, .F. ) ;
#148 = ORIENTED_EDGE ( 'NONE', *, *, #137, .F. ) ;
#149 = CLOSED_SHELL ( 'NONE', ( #22, #156, #19, #154, #146 ) ) ;
#150 = ORIENTED_EDGE ( 'NONE', *, *, #137, .T. ) ;
#151 = ORIENTED_EDGE ( 'NONE', *, *, #144, .F. ) ;
#152 = EDGE_LOOP ( 'NONE', ( #147, #148 ) ) ;
#153 = ORIENTED_EDGE ( 'NONE', *, *, #18, .T. ) ;
#154 = ADVANCED_FACE ( 'NONE', ( #258 ), #196, .T. ) ;
#155 = EDGE_CURVE ( 'NONE', #26, #36, #176, .T. ) ;
#156 = ADVANCED_FACE ( 'NONE', ( #242 ), #254, .T. ) ;
#157 = ORIENTED_EDGE ( 'NONE', *, *, #32, .T. ) ;
#158 = ORIENTED_EDGE ( 'NONE', *, *, #159, .T. ) ;
#159 = EDGE_CURVE ( 'NONE', #29, #160, #255, .T. ) ;
#160 = VERTEX_POINT ( 'NONE', #188 ) ;
#161 = ORIENTED_EDGE ( 'NONE', *, *, #15, .T. ) ;
#162 = DIRECTION ( 'NONE',  ( 1.000000000000000000, 0.0000000000000000000, 0.0000000000000000000 ) ) ;
#163 = DIRECTION ( 'NONE',  ( -0.0000000000000000000, -0.0000000000000000000, 1.000000000000000000 ) ) ;
#164 = CARTESIAN_POINT ( 'NONE',  ( 0.0000000000000000000, 0.0000000000000000000, -1.629999999999999400 ) ) ;
#165 = AXIS2_PLACEMENT_3D ( 'NONE', #164, #163, #162 ) ;
#166 = DIRECTION ( 'NONE',  ( 1.000000000000000000, 0.0000000000000000000, 0.0000000000000000000 ) ) ;
#167 = DIRECTION ( 'NONE',  ( -0.0000000000000000000, -0.0000000000000000000, 1.000000000000000000 ) ) ;
#168 = CARTESIAN_POINT ( 'NONE',  ( 0.0000000000000000000, 0.0000000000000000000, 4.308132045400366600 ) ) ;
#169 = AXIS2_PLACEMENT_3D ( 'NONE', #168, #167, #166 ) ;
#170 = CIRCLE ( 'NONE', #165, 12.69999999999999900 ) ;
#171 = CYLINDRICAL_SURFACE ( 'NONE', #169, 12.69999999999999900 ) ;
#172 =( GEOMETRIC_REPRESENTATION_CONTEXT ( 3 ) GLOBAL_UNCERTAINTY_ASSIGNED_CONTEXT ( ( #110 ) ) GLOBAL_UNIT_ASSIGNED_CONTEXT ( ( #113, #112, #111 ) ) REPRESENTATION_CONTEXT ( 'NONE', 'WORKASPACE' ) );
#173 = SURFACE_STYLE_FILL_AREA ( #186 ) ;
#174 = COLOUR_RGB ( '',0.9568627450980391500, 0.9490196078431372100, 0.9607843137254902200 ) ;
#175 = CARTESIAN_POINT ( 'NONE',  ( 12.69999999999999900, 0.0000000000000000000, 4.308132045400366600 ) ) ;
#176 = LINE ( 'NONE', #175, #244 ) ;
#177 = FILL_AREA_STYLE_COLOUR ( '', #241 ) ;
#178 = DIRECTION ( 'NONE',  ( 1.000000000000000000, 0.0000000000000000000, 0.0000000000000000000 ) ) ;
#179 = DIRECTION ( 'NONE',  ( -0.0000000000000000000, -0.0000000000000000000, 1.000000000000000000 ) ) ;
#180 = CARTESIAN_POINT ( 'NONE',  ( 0.0000000000000000000, 0.0000000000000000000, 4.308132045400366600 ) ) ;
#181 = AXIS2_PLACEMENT_3D ( 'NONE', #180, #179, #178 ) ;
#182 =( GEOMETRIC_REPRESENTATION_CONTEXT ( 3 ) GLOBAL_UNCERTAINTY_ASSIGNED_CONTEXT ( ( #192 ) ) GLOBAL_UNIT_ASSIGNED_CONTEXT ( ( #183, #194, #193 ) ) REPRESENTATION_CONTEXT ( 'NONE', 'WORKASPACE' ) );
#183 =( LENGTH_UNIT ( ) NAMED_UNIT ( * ) SI_UNIT ( .MILLI., .METRE. ) );
#184 = MECHANICAL_DESIGN_GEOMETRIC_PRESENTATION_REPRESENTATION (  '', ( #235 ), #182 ) ;
#185 = PRESENTATION_LAYER_ASSIGNMENT (  '', '', ( #235 ) ) ;
#186 = FILL_AREA_STYLE ('',( #257 ) ) ;
#187 =( LENGTH_UNIT ( ) NAMED_UNIT ( * ) SI_UNIT ( .MILLI., .METRE. ) );
#188 = CARTESIAN_POINT ( 'NONE',  ( -1.555250069354418500E-015, -12.69999999999999400, 0.3649300878960088900 ) ) ;
#189 = DIRECTION ( 'NONE',  ( 1.000000000000000000, 0.0000000000000000000, 0.0000000000000000000 ) ) ;
#190 = DIRECTION ( 'NONE',  ( -0.0000000000000000000, -0.0000000000000000000, 1.000000000000000000 ) ) ;
#191 = AXIS2_PLACEMENT_3D ( 'NONE', #256, #190, #189 ) ;
#192 = UNCERTAINTY_MEASURE_WITH_UNIT (LENGTH_MEASURE( 1.000000000000000100E-005 ), #183, 'distance_accuracy_value', 'NONE');
#193 =( NAMED_UNIT ( * ) SI_UNIT ( $, .STERADIAN. ) SOLID_ANGLE_UNIT ( ) );
#194 =( NAMED_UNIT ( * ) PLANE_ANGLE_UNIT ( ) SI_UNIT ( $, .RADIAN. ) );
#195 =( NAMED_UNIT ( * ) PLANE_ANGLE_UNIT ( ) SI_UNIT ( $, .RADIAN. ) );
#196 = CYLINDRICAL_SURFACE ( 'NONE', #181, 12.69999999999999900 ) ;
#197 = CARTESIAN_POINT ( 'NONE',  ( 0.0000000000000000000, 0.0000000000000000000, 0.0000000000000000000 ) ) ;
#198 =( GEOMETRIC_REPRESENTATION_CONTEXT ( 3 ) GLOBAL_UNCERTAINTY_ASSIGNED_CONTEXT ( ( #199 ) ) GLOBAL_UNIT_ASSIGNED_CONTEXT ( ( #202, #201, #200 ) ) REPRESENTATION_CONTEXT ( 'NONE', 'WORKASPACE' ) );
#199 = UNCERTAINTY_MEASURE_WITH_UNIT (LENGTH_MEASURE( 1.000000000000000100E-005 ), #202, 'distance_accuracy_value', 'NONE');
#200 =( NAMED_UNIT ( * ) SI_UNIT ( $, .STERADIAN. ) SOLID_ANGLE_UNIT ( ) );
#201 =( NAMED_UNIT ( * ) PLANE_ANGLE_UNIT ( ) SI_UNIT ( $, .RADIAN. ) );
#202 =( LENGTH_UNIT ( ) NAMED_UNIT ( * ) SI_UNIT ( .MILLI., .METRE. ) );
#203 = MECHANICAL_DESIGN_GEOMETRIC_PRESENTATION_REPRESENTATION (  '', ( #205 ), #198 ) ;
#204 = PRESENTATION_LAYER_ASSIGNMENT (  '', '', ( #205 ) ) ;
#205 = STYLED_ITEM ( 'NONE', ( #206 ), #215 ) ;
#206 = PRESENTATION_STYLE_ASSIGNMENT (( #207 ) ) ;
#207 = SURFACE_STYLE_USAGE ( .BOTH. , #208 ) ;
#208 = SURFACE_SIDE_STYLE ('',( #209 ) ) ;
#209 = SURFACE_STYLE_FILL_AREA ( #210 ) ;
#210 = FILL_AREA_STYLE ('',( #211 ) ) ;
#211 = FILL_AREA_STYLE_COLOUR ( '', #212 ) ;
#212 = COLOUR_RGB ( '',0.7960784313725489700, 0.8235294117647058400, 0.9372549019607843100 ) ;
#213 = APPLICATION_CONTEXT ( 'automotive_design' ) ;
#214 = SHAPE_DEFINITION_REPRESENTATION ( #228, #215 ) ;
#215 = ADVANCED_BREP_SHAPE_REPRESENTATION ( '4496-E0W', ( #21, #226 ), #216 ) ;
#216 =( GEOMETRIC_REPRESENTATION_CONTEXT ( 3 ) GLOBAL_UNCERTAINTY_ASSIGNED_CONTEXT ( ( #247 ) ) GLOBAL_UNIT_ASSIGNED_CONTEXT ( ( #187, #249, #248 ) ) REPRESENTATION_CONTEXT ( 'NONE', 'WORKASPACE' ) );
#217 = PRODUCT_DEFINITION ( 'UNKNOWN', '', #230, #218 ) ;
#218 = PRODUCT_DEFINITION_CONTEXT ( 'detailed design', #220, 'design' ) ;
#219 = APPLICATION_PROTOCOL_DEFINITION ( 'draft international standard', 'automotive_design', 1998, #220 ) ;
#220 = APPLICATION_CONTEXT ( 'automotive_design' ) ;
#221 = PRODUCT ( '4496-E0W', '4496-E0W', '', ( #222 ) ) ;
#222 = PRODUCT_CONTEXT ( 'NONE', #213, 'mechanical' ) ;
#223 = APPLICATION_PROTOCOL_DEFINITION ( 'draft international standard', 'automotive_design', 1998, #213 ) ;
#224 = DIRECTION ( 'NONE',  ( 1.000000000000000000, 0.0000000000000000000, 0.0000000000000000000 ) ) ;
#225 = DIRECTION ( 'NONE',  ( 0.0000000000000000000, 0.0000000000000000000, 1.000000000000000000 ) ) ;
#226 = AXIS2_PLACEMENT_3D ( 'NONE', #197, #225, #224 ) ;
#227 =( GEOMETRIC_REPRESENTATION_CONTEXT ( 3 ) GLOBAL_UNCERTAINTY_ASSIGNED_CONTEXT ( ( #245 ) ) GLOBAL_UNIT_ASSIGNED_CONTEXT ( ( #259, #195, #246 ) ) REPRESENTATION_CONTEXT ( 'NONE', 'WORKASPACE' ) );
#228 = PRODUCT_DEFINITION_SHAPE ( 'NONE', 'NONE',  #217 ) ;
#229 = PRODUCT_RELATED_PRODUCT_CATEGORY ( 'part', '', ( #221 ) ) ;
#230 = PRODUCT_DEFINITION_FORMATION_WITH_SPECIFIED_SOURCE ( 'ANY', '', #221, .NOT_KNOWN. ) ;
#231 = STYLED_ITEM ( 'NONE', ( #232 ), #154 ) ;
#232 = PRESENTATION_STYLE_ASSIGNMENT (( #233 ) ) ;
#233 = SURFACE_STYLE_USAGE ( .BOTH. , #234 ) ;
#234 = SURFACE_SIDE_STYLE ('',( #173 ) ) ;
#235 = STYLED_ITEM ( 'NONE', ( #236 ), #156 ) ;
#236 = PRESENTATION_STYLE_ASSIGNMENT (( #237 ) ) ;
#237 = SURFACE_STYLE_USAGE ( .BOTH. , #238 ) ;
#238 = SURFACE_SIDE_STYLE ('',( #239 ) ) ;
#239 = SURFACE_STYLE_FILL_AREA ( #240 ) ;
#240 = FILL_AREA_STYLE ('',( #177 ) ) ;
#241 = COLOUR_RGB ( '',0.9568627450980391500, 0.9490196078431372100, 0.9607843137254902200 ) ;
#242 = FACE_OUTER_BOUND ( 'NONE', #38, .T. ) ;
#243 = DIRECTION ( 'NONE',  ( -0.0000000000000000000, -0.0000000000000000000, 1.000000000000000000 ) ) ;
#244 = VECTOR ( 'NONE', #243, 1000.000000000000000 ) ;
#245 = UNCERTAINTY_MEASURE_WITH_UNIT (LENGTH_MEASURE( 1.000000000000000100E-005 ), #259, 'distance_accuracy_value', 'NONE');
#246 =( NAMED_UNIT ( * ) SI_UNIT ( $, .STERADIAN. ) SOLID_ANGLE_UNIT ( ) );
#247 = UNCERTAINTY_MEASURE_WITH_UNIT (LENGTH_MEASURE( 1.000000000000000100E-005 ), #187, 'distance_accuracy_value', 'NONE');
#248 =( NAMED_UNIT ( * ) SI_UNIT ( $, .STERADIAN. ) SOLID_ANGLE_UNIT ( ) );
#249 =( NAMED_UNIT ( * ) PLANE_ANGLE_UNIT ( ) SI_UNIT ( $, .RADIAN. ) );
#250 = DIRECTION ( 'NONE',  ( 0.0000000000000000000, 1.000000000000000000, 0.0000000000000000000 ) ) ;
#251 = DIRECTION ( 'NONE',  ( -1.000000000000000000, 0.0000000000000000000, 0.0000000000000000000 ) ) ;
#252 = CARTESIAN_POINT ( 'NONE',  ( 0.0000000000000000000, 0.0000000000000000000, -62.74999999999998600 ) ) ;
#253 = AXIS2_PLACEMENT_3D ( 'NONE', #252, #251, #250 ) ;
#254 = SPHERICAL_SURFACE ( 'NONE', #253, 64.37999999999999500 ) ;
#255 = CIRCLE ( 'NONE', #191, 12.69999999999999900 ) ;
#256 = CARTESIAN_POINT ( 'NONE',  ( 0.0000000000000000000, 0.0000000000000000000, 0.3649300878960084500 ) ) ;
#257 = FILL_AREA_STYLE_COLOUR ( '', #174 ) ;
#258 = FACE_OUTER_BOUND ( 'NONE', #141, .T. ) ;
#259 =( LENGTH_UNIT ( ) NAMED_UNIT ( * ) SI_UNIT ( .MILLI., .METRE. ) );
#260 = MECHANICAL_DESIGN_GEOMETRIC_PRESENTATION_REPRESENTATION (  '', ( #231 ), #227 ) ;
#261 = PRESENTATION_LAYER_ASSIGNMENT (  '', '', ( #231 ) ) ;
ENDSEC;
END-ISO-10303-21;
