ISO-10303-21;
HEADER;
FILE_DESCRIPTION (( 'STEP AP203' ),
    '1' );
FILE_NAME ('20114-E0W.STEP',
    '2009-09-14T20:28:14',
    ( 'Admin' ),
    ( 'Thorlabs, Inc.' ),
    'SwSTEP 2.0',
    'SolidWorks 2007',
    '' );
FILE_SCHEMA (( 'CONFIG_CONTROL_DESIGN' ));
ENDSEC;

DATA;
#1 = CC_DESIGN_APPROVAL ( #89, ( #137 ) ) ;
#2 = DATE_AND_TIME ( #4, #3 ) ;
#3 = LOCAL_TIME ( 16, 28, 14.00000000000000000, #5 ) ;
#4 = CALENDAR_DATE ( 2009, 14, 9 ) ;
#5 = COORDINATED_UNIVERSAL_TIME_OFFSET ( 5, 0, .BEHIND. ) ;
#6 = APPROVAL_DATE_TIME ( #2, #89 ) ;
#7 = ADVANCED_FACE ( 'NONE', ( #47 ), #46, .T. ) ;
#8 = EDGE_LOOP ( 'NONE', ( #85, #60 ) ) ;
#9 = VERTEX_POINT ( 'NONE', #78 ) ;
#10 = ORIENTED_EDGE ( 'NONE', *, *, #75, .F. ) ;
#11 = ORIENTED_EDGE ( 'NONE', *, *, #15, .F. ) ;
#12 = ORIENTED_EDGE ( 'NONE', *, *, #99, .T. ) ;
#13 = EDGE_LOOP ( 'NONE', ( #50, #12, #49, #11 ) ) ;
#14 = ORIENTED_EDGE ( 'NONE', *, *, #83, .T. ) ;
#15 = EDGE_CURVE ( 'NONE', #95, #9, #77, .T. ) ;
#16 = MANIFOLD_SOLID_BREP ( 'NONE', #48 ) ;
#17 = ADVANCED_FACE ( 'NONE', ( #45 ), #39, .T. ) ;
#18 = VERTEX_POINT ( 'NONE', #38 ) ;
#19 = ORIENTED_EDGE ( 'NONE', *, *, #94, .T. ) ;
#20 = EDGE_LOOP ( 'NONE', ( #93, #21, #86 ) ) ;
#21 = ORIENTED_EDGE ( 'NONE', *, *, #72, .T. ) ;
#22 = EDGE_LOOP ( 'NONE', ( #23, #14, #61 ) ) ;
#23 = ORIENTED_EDGE ( 'NONE', *, *, #72, .F. ) ;
#24 = DIRECTION ( 'NONE',  ( 0.0000000000000000000, 1.000000000000000000, 3.073328992872301800E-016 ) ) ;
#25 = DIRECTION ( 'NONE',  ( 0.0000000000000000000, 3.061515884555943100E-016, -1.000000000000000000 ) ) ;
#26 = AXIS2_PLACEMENT_3D ( 'NONE', #34, #25, #24 ) ;
#27 = CIRCLE ( 'NONE', #26, 6.349999999999988100 ) ;
#28 = CARTESIAN_POINT ( 'NONE',  ( 0.0000000000000000000, 6.349999999999968600, 0.8334728978120556900 ) ) ;
#29 = DIRECTION ( 'NONE',  ( 0.0000000000000000000, 0.0000000000000000000, 1.000000000000000000 ) ) ;
#30 = DIRECTION ( 'NONE',  ( -1.000000000000000000, 0.0000000000000000000, 0.0000000000000000000 ) ) ;
#31 = CARTESIAN_POINT ( 'NONE',  ( 0.0000000000000000000, 7.089001261006941900E-015, -58.90799999999973800 ) ) ;
#32 = AXIS2_PLACEMENT_3D ( 'NONE', #31, #30, #29 ) ;
#33 = CIRCLE ( 'NONE', #32, 60.07799999999984000 ) ;
#34 = CARTESIAN_POINT ( 'NONE',  ( 0.0000000000000000000, -1.651604845939028300E-016, 0.8334728978120539100 ) ) ;
#35 = DIRECTION ( 'NONE',  ( 0.0000000000000000000, 1.000000000000000000, 3.073328992872299300E-016 ) ) ;
#36 = DIRECTION ( 'NONE',  ( 0.0000000000000000000, 3.061515884555943100E-016, -1.000000000000000000 ) ) ;
#37 = AXIS2_PLACEMENT_3D ( 'NONE', #40, #36, #35 ) ;
#38 = CARTESIAN_POINT ( 'NONE',  ( 7.776250346772057900E-016, -6.349999999999980100, 0.8334728978120538000 ) ) ;
#39 = CYLINDRICAL_SURFACE ( 'NONE', #37, 6.349999999999993400 ) ;
#40 = CARTESIAN_POINT ( 'NONE',  ( 0.0000000000000000000, 4.482059254989900100E-016, -1.169999999999999900 ) ) ;
#41 = DIRECTION ( 'NONE',  ( 0.0000000000000000000, 1.000000000000000000, 3.073328992872296900E-016 ) ) ;
#42 = DIRECTION ( 'NONE',  ( 0.0000000000000000000, 3.061515884555943100E-016, -1.000000000000000000 ) ) ;
#43 = CARTESIAN_POINT ( 'NONE',  ( 0.0000000000000000000, 4.482059254989906000E-016, -1.170000000000001900 ) ) ;
#44 = AXIS2_PLACEMENT_3D ( 'NONE', #43, #42, #41 ) ;
#45 = FACE_OUTER_BOUND ( 'NONE', #90, .T. ) ;
#46 = PLANE ( 'NONE',  #82 ) ;
#47 = FACE_OUTER_BOUND ( 'NONE', #8, .T. ) ;
#48 = CLOSED_SHELL ( 'NONE', ( #17, #76, #7, #84, #98 ) ) ;
#49 = ORIENTED_EDGE ( 'NONE', *, *, #75, .T. ) ;
#50 = ORIENTED_EDGE ( 'NONE', *, *, #94, .F. ) ;
#51 = DIRECTION ( 'NONE',  ( 1.000000000000000000, 0.0000000000000000000, 0.0000000000000000000 ) ) ;
#52 = CARTESIAN_POINT ( 'NONE',  ( 0.0000000000000000000, 7.089001261006941900E-015, -58.90799999999973800 ) ) ;
#53 = AXIS2_PLACEMENT_3D ( 'NONE', #52, #51, #125 ) ;
#54 = SPHERICAL_SURFACE ( 'NONE', #53, 60.07799999999984000 ) ;
#55 = FACE_OUTER_BOUND ( 'NONE', #22, .T. ) ;
#56 = DIRECTION ( 'NONE',  ( 0.0000000000000000000, 3.061515884555943100E-016, -1.000000000000000000 ) ) ;
#57 = VECTOR ( 'NONE', #56, 1000.000000000000000 ) ;
#58 = CARTESIAN_POINT ( 'NONE',  ( 0.0000000000000000000, 6.349999999999994300, -1.169999999999998200 ) ) ;
#59 = LINE ( 'NONE', #58, #57 ) ;
#60 = ORIENTED_EDGE ( 'NONE', *, *, #15, .T. ) ;
#61 = ORIENTED_EDGE ( 'NONE', *, *, #73, .F. ) ;
#62 = DIRECTION ( 'NONE',  ( 0.0000000000000000000, 1.000000000000000000, 3.073328992872301800E-016 ) ) ;
#63 = DIRECTION ( 'NONE',  ( 0.0000000000000000000, 3.061515884555943100E-016, -1.000000000000000000 ) ) ;
#64 = AXIS2_PLACEMENT_3D ( 'NONE', #71, #63, #62 ) ;
#65 = CIRCLE ( 'NONE', #64, 6.349999999999988100 ) ;
#66 = APPROVAL_STATUS ( 'not_yet_approved' ) ;
#67 = PERSON_AND_ORGANIZATION ( #142, #141 ) ;
#68 = DIRECTION ( 'NONE',  ( 0.0000000000000000000, 1.000000000000000000, 3.073328992872299300E-016 ) ) ;
#69 = DIRECTION ( 'NONE',  ( 0.0000000000000000000, 3.061515884555943100E-016, -1.000000000000000000 ) ) ;
#70 = AXIS2_PLACEMENT_3D ( 'NONE', #107, #69, #68 ) ;
#71 = CARTESIAN_POINT ( 'NONE',  ( 0.0000000000000000000, -1.651604845939028300E-016, 0.8334728978120539100 ) ) ;
#72 = EDGE_CURVE ( 'NONE', #92, #74, #33, .T. ) ;
#73 = EDGE_CURVE ( 'NONE', #74, #18, #27, .T. ) ;
#74 = VERTEX_POINT ( 'NONE', #28 ) ;
#75 = EDGE_CURVE ( 'NONE', #74, #9, #59, .T. ) ;
#76 = ADVANCED_FACE ( 'NONE', ( #55 ), #54, .T. ) ;
#77 = CIRCLE ( 'NONE', #44, 6.349999999999998800 ) ;
#78 = CARTESIAN_POINT ( 'NONE',  ( 0.0000000000000000000, 6.349999999999999600, -1.169999999999999900 ) ) ;
#79 = DIRECTION ( 'NONE',  ( 0.0000000000000000000, 1.000000000000000000, 3.061515884555943100E-016 ) ) ;
#80 = DIRECTION ( 'NONE',  ( 0.0000000000000000000, 3.061515884555943100E-016, -1.000000000000000000 ) ) ;
#81 = CARTESIAN_POINT ( 'NONE',  ( 0.0000000000000000000, 4.482059254989903000E-016, -1.170000000000000800 ) ) ;
#82 = AXIS2_PLACEMENT_3D ( 'NONE', #81, #80, #79 ) ;
#83 = EDGE_CURVE ( 'NONE', #92, #18, #123, .T. ) ;
#84 = ADVANCED_FACE ( 'NONE', ( #124 ), #116, .T. ) ;
#85 = ORIENTED_EDGE ( 'NONE', *, *, #97, .T. ) ;
#86 = ORIENTED_EDGE ( 'NONE', *, *, #99, .F. ) ;
#87 = APPROVAL_PERSON_ORGANIZATION ( #67, #89, #88 ) ;
#88 = APPROVAL_ROLE ( '' ) ;
#89 = APPROVAL ( #66, 'UNSPECIFIED' ) ;
#90 = EDGE_LOOP ( 'NONE', ( #91, #19, #96, #10 ) ) ;
#91 = ORIENTED_EDGE ( 'NONE', *, *, #73, .T. ) ;
#92 = VERTEX_POINT ( 'NONE', #117 ) ;
#93 = ORIENTED_EDGE ( 'NONE', *, *, #83, .F. ) ;
#94 = EDGE_CURVE ( 'NONE', #18, #95, #112, .T. ) ;
#95 = VERTEX_POINT ( 'NONE', #108 ) ;
#96 = ORIENTED_EDGE ( 'NONE', *, *, #97, .F. ) ;
#97 = EDGE_CURVE ( 'NONE', #9, #95, #106, .T. ) ;
#98 = ADVANCED_FACE ( 'NONE', ( #101 ), #100, .T. ) ;
#99 = EDGE_CURVE ( 'NONE', #18, #74, #65, .T. ) ;
#100 = CYLINDRICAL_SURFACE ( 'NONE', #70, 6.349999999999993400 ) ;
#101 = FACE_OUTER_BOUND ( 'NONE', #13, .T. ) ;
#102 = DIRECTION ( 'NONE',  ( 0.0000000000000000000, 1.000000000000000000, 3.073328992872296900E-016 ) ) ;
#103 = DIRECTION ( 'NONE',  ( 0.0000000000000000000, 3.061515884555943100E-016, -1.000000000000000000 ) ) ;
#104 = CARTESIAN_POINT ( 'NONE',  ( 0.0000000000000000000, 4.482059254989906000E-016, -1.170000000000001900 ) ) ;
#105 = AXIS2_PLACEMENT_3D ( 'NONE', #104, #103, #102 ) ;
#106 = CIRCLE ( 'NONE', #105, 6.349999999999998800 ) ;
#107 = CARTESIAN_POINT ( 'NONE',  ( 0.0000000000000000000, 4.482059254989900100E-016, -1.169999999999999900 ) ) ;
#108 = CARTESIAN_POINT ( 'NONE',  ( 7.776250346772094400E-016, -6.349999999999998800, -1.170000000000003900 ) ) ;
#109 = DIRECTION ( 'NONE',  ( 0.0000000000000000000, 3.061515884555943100E-016, -1.000000000000000000 ) ) ;
#110 = VECTOR ( 'NONE', #109, 1000.000000000000000 ) ;
#111 = CARTESIAN_POINT ( 'NONE',  ( 7.776250346772087500E-016, -6.349999999999992500, -1.170000000000001900 ) ) ;
#112 = LINE ( 'NONE', #111, #110 ) ;
#113 = DIRECTION ( 'NONE',  ( 0.0000000000000000000, 1.000000000000000000, 3.464942526668953700E-016 ) ) ;
#114 = DIRECTION ( 'NONE',  ( 1.000000000000000000, 0.0000000000000000000, 0.0000000000000000000 ) ) ;
#115 = AXIS2_PLACEMENT_3D ( 'NONE', #118, #114, #113 ) ;
#116 = SPHERICAL_SURFACE ( 'NONE', #115, 60.07799999999984000 ) ;
#117 = CARTESIAN_POINT ( 'NONE',  ( 0.0000000000000000000, -7.625378843981174600E-015, 1.170000000000101600 ) ) ;
#118 = CARTESIAN_POINT ( 'NONE',  ( 0.0000000000000000000, 7.089001261006941900E-015, -58.90799999999973800 ) ) ;
#119 = DIRECTION ( 'NONE',  ( -1.224606353822377300E-016, 1.000000000000000000, 0.0000000000000000000 ) ) ;
#120 = DIRECTION ( 'NONE',  ( 1.000000000000000000, 1.224606353822377300E-016, 3.749151804555343600E-032 ) ) ;
#121 = CARTESIAN_POINT ( 'NONE',  ( 0.0000000000000000000, 7.089001261006941900E-015, -58.90799999999973800 ) ) ;
#122 = AXIS2_PLACEMENT_3D ( 'NONE', #121, #120, #119 ) ;
#123 = CIRCLE ( 'NONE', #122, 60.07799999999984000 ) ;
#124 = FACE_OUTER_BOUND ( 'NONE', #20, .T. ) ;
#125 = DIRECTION ( 'NONE',  ( 0.0000000000000000000, 1.000000000000000000, 3.464942526668953700E-016 ) ) ;
#126 =( NAMED_UNIT ( * ) SI_UNIT ( $, .STERADIAN. ) SOLID_ANGLE_UNIT ( ) );
#127 = ADVANCED_BREP_SHAPE_REPRESENTATION ( '20114-E0W', ( #16, #179 ), #175 ) ;
#128 = CC_DESIGN_DATE_AND_TIME_ASSIGNMENT ( #130, #129, ( #137 ) ) ;
#129 = DATE_TIME_ROLE ( 'classification_date' ) ;
#130 = DATE_AND_TIME ( #131, #132 ) ;
#131 = CALENDAR_DATE ( 2009, 14, 9 ) ;
#132 = LOCAL_TIME ( 16, 28, 14.00000000000000000, #133 ) ;
#133 = COORDINATED_UNIVERSAL_TIME_OFFSET ( 5, 0, .BEHIND. ) ;
#134 = CC_DESIGN_PERSON_AND_ORGANIZATION_ASSIGNMENT ( #136, #135, ( #137 ) ) ;
#135 = PERSON_AND_ORGANIZATION_ROLE ( 'classification_officer' ) ;
#136 = PERSON_AND_ORGANIZATION ( #142, #141 ) ;
#137 = SECURITY_CLASSIFICATION ( '', '', #138 ) ;
#138 = SECURITY_CLASSIFICATION_LEVEL ( 'unclassified' ) ;
#139 =( LENGTH_UNIT ( ) NAMED_UNIT ( * ) SI_UNIT ( .MILLI., .METRE. ) );
#140 =( NAMED_UNIT ( * ) PLANE_ANGLE_UNIT ( ) SI_UNIT ( $, .RADIAN. ) );
#141 = ORGANIZATION ( 'UNSPECIFIED', 'UNSPECIFIED', '' ) ;
#142 = PERSON ( 'UNSPECIFIED', 'UNSPECIFIED', 'UNSPECIFIED', ('UNSPECIFIED'), ('UNSPECIFIED'), ('UNSPECIFIED') ) ;
#143 = APPROVAL_STATUS ( 'not_yet_approved' ) ;
#144 = PERSON_AND_ORGANIZATION ( #142, #141 ) ;
#145 = PRODUCT_DEFINITION ( 'UNKNOWN', '', #197, #146 ) ;
#146 = DESIGN_CONTEXT ( 'detailed design', #148, 'design' ) ;
#147 = APPLICATION_PROTOCOL_DEFINITION ( 'international standard', 'config_control_design', 1994, #148 ) ;
#148 = APPLICATION_CONTEXT ( 'configuration controlled 3d designs of mechanical parts and assemblies' ) ;
#149 = CC_DESIGN_PERSON_AND_ORGANIZATION_ASSIGNMENT ( #161, #150, ( #171 ) ) ;
#150 = PERSON_AND_ORGANIZATION_ROLE ( 'design_owner' ) ;
#151 = UNCERTAINTY_MEASURE_WITH_UNIT (LENGTH_MEASURE( 1.000000000000000100E-005 ), #139, 'distance_accuracy_value', 'NONE');
#152 = CC_DESIGN_DATE_AND_TIME_ASSIGNMENT ( #154, #153, ( #145 ) ) ;
#153 = DATE_TIME_ROLE ( 'creation_date' ) ;
#154 = DATE_AND_TIME ( #155, #156 ) ;
#155 = CALENDAR_DATE ( 2009, 14, 9 ) ;
#156 = LOCAL_TIME ( 16, 28, 14.00000000000000000, #157 ) ;
#157 = COORDINATED_UNIVERSAL_TIME_OFFSET ( 5, 0, .BEHIND. ) ;
#158 = CC_DESIGN_PERSON_AND_ORGANIZATION_ASSIGNMENT ( #160, #159, ( #145 ) ) ;
#159 = PERSON_AND_ORGANIZATION_ROLE ( 'creator' ) ;
#160 = PERSON_AND_ORGANIZATION ( #142, #141 ) ;
#161 = PERSON_AND_ORGANIZATION ( #142, #141 ) ;
#162 = CC_DESIGN_APPROVAL ( #170, ( #145 ) ) ;
#163 = APPROVAL_DATE_TIME ( #164, #170 ) ;
#164 = DATE_AND_TIME ( #165, #166 ) ;
#165 = CALENDAR_DATE ( 2009, 14, 9 ) ;
#166 = LOCAL_TIME ( 16, 28, 14.00000000000000000, #167 ) ;
#167 = COORDINATED_UNIVERSAL_TIME_OFFSET ( 5, 0, .BEHIND. ) ;
#168 = APPROVAL_PERSON_ORGANIZATION ( #144, #170, #169 ) ;
#169 = APPROVAL_ROLE ( '' ) ;
#170 = APPROVAL ( #143, 'UNSPECIFIED' ) ;
#171 = PRODUCT ( '20114-E0W', '20114-E0W', '', ( #172 ) ) ;
#172 = MECHANICAL_CONTEXT ( 'NONE', #174, 'mechanical' ) ;
#173 = APPLICATION_PROTOCOL_DEFINITION ( 'international standard', 'config_control_design', 1994, #174 ) ;
#174 = APPLICATION_CONTEXT ( 'configuration controlled 3d designs of mechanical parts and assemblies' ) ;
#175 =( GEOMETRIC_REPRESENTATION_CONTEXT ( 3 ) GLOBAL_UNCERTAINTY_ASSIGNED_CONTEXT ( ( #151 ) ) GLOBAL_UNIT_ASSIGNED_CONTEXT ( ( #139, #140, #126 ) ) REPRESENTATION_CONTEXT ( 'NONE', 'WORKASPACE' ) );
#176 = DIRECTION ( 'NONE',  ( 1.000000000000000000, 0.0000000000000000000, 0.0000000000000000000 ) ) ;
#177 = DIRECTION ( 'NONE',  ( 0.0000000000000000000, 0.0000000000000000000, 1.000000000000000000 ) ) ;
#178 = CARTESIAN_POINT ( 'NONE',  ( 0.0000000000000000000, 0.0000000000000000000, 0.0000000000000000000 ) ) ;
#179 = AXIS2_PLACEMENT_3D ( 'NONE', #178, #177, #176 ) ;
#180 = CC_DESIGN_PERSON_AND_ORGANIZATION_ASSIGNMENT ( #182, #181, ( #197 ) ) ;
#181 = PERSON_AND_ORGANIZATION_ROLE ( 'design_supplier' ) ;
#182 = PERSON_AND_ORGANIZATION ( #142, #141 ) ;
#183 = CC_DESIGN_PERSON_AND_ORGANIZATION_ASSIGNMENT ( #185, #184, ( #197 ) ) ;
#184 = PERSON_AND_ORGANIZATION_ROLE ( 'creator' ) ;
#185 = PERSON_AND_ORGANIZATION ( #142, #141 ) ;
#186 = CC_DESIGN_APPROVAL ( #194, ( #197 ) ) ;
#187 = APPROVAL_DATE_TIME ( #188, #194 ) ;
#188 = DATE_AND_TIME ( #189, #190 ) ;
#189 = CALENDAR_DATE ( 2009, 14, 9 ) ;
#190 = LOCAL_TIME ( 16, 28, 14.00000000000000000, #191 ) ;
#191 = COORDINATED_UNIVERSAL_TIME_OFFSET ( 5, 0, .BEHIND. ) ;
#192 = APPROVAL_PERSON_ORGANIZATION ( #196, #194, #193 ) ;
#193 = APPROVAL_ROLE ( '' ) ;
#194 = APPROVAL ( #195, 'UNSPECIFIED' ) ;
#195 = APPROVAL_STATUS ( 'not_yet_approved' ) ;
#196 = PERSON_AND_ORGANIZATION ( #142, #141 ) ;
#197 = PRODUCT_DEFINITION_FORMATION_WITH_SPECIFIED_SOURCE ( 'ANY', '', #171, .NOT_KNOWN. ) ;
#198 = PRODUCT_DEFINITION_SHAPE ( 'NONE', 'NONE',  #145 ) ;
#199 = CC_DESIGN_SECURITY_CLASSIFICATION ( #137, ( #197 ) ) ;
#200 = SHAPE_DEFINITION_REPRESENTATION ( #198, #127 ) ;
#201 = PRODUCT_RELATED_PRODUCT_CATEGORY ( 'detail', '', ( #171 ) ) ;
ENDSEC;
END-ISO-10303-21;
