ISO-10303-21;
HEADER;
FILE_DESCRIPTION (( 'STEP AP203' ),
    '1' );
FILE_NAME ('ISP Wedged Parts_16808.step',
    '2021-01-13T16:35:12',
    ( '' ),
    ( '' ),
    'SwSTEP 2.0',
    'SolidWorks 2018',
    '' );
FILE_SCHEMA (( 'CONFIG_CONTROL_DESIGN' ));
ENDSEC;

DATA;
#1 = CC_DESIGN_PERSON_AND_ORGANIZATION_ASSIGNMENT ( #132, #131, ( #52 ) ) ;
#2 = ORIENTED_EDGE ( 'NONE', *, *, #6, .T. ) ;
#3 = APPROVAL_ROLE ( '' ) ;
#4 = COORDINATED_UNIVERSAL_TIME_OFFSET ( 5, 0, .BEHIND. ) ;
#5 = PERSON_AND_ORGANIZATION_ROLE ( 'design_supplier' ) ;
#6 = EDGE_CURVE ( 'NONE', #112, #106, #9, .T. ) ;
#7 = CARTESIAN_POINT ( 'NONE',  ( -6.349999999999999645, 0.0000000000000000000, 2.000000000000000000 ) ) ;
#8 = ADVANCED_FACE ( 'NONE', ( #59 ), #10, .T. ) ;
#9 = LINE ( 'NONE', #119, #17 ) ;
#10 = CYLINDRICAL_SURFACE ( 'NONE', #102, 6.349999999999999645 ) ;
#11 = CC_DESIGN_APPROVAL ( #16, ( #20 ) ) ;
#12 = CARTESIAN_POINT ( 'NONE',  ( -6.349999999999999645, 0.0000000000000000000, 2.000000000000000000 ) ) ;
#13 = EDGE_CURVE ( 'NONE', #76, #112, #164, .T. ) ;
#14 = LOCAL_TIME ( 11, 35, 12.00000000000000000, #49 ) ;
#15 = PERSON_AND_ORGANIZATION_ROLE ( 'classification_officer' ) ;
#16 = APPROVAL ( #151, 'UNSPECIFIED' ) ;
#17 = VECTOR ( 'NONE', #160, 1000.000000000000000 ) ;
#18 = CC_DESIGN_PERSON_AND_ORGANIZATION_ASSIGNMENT ( #60, #5, ( #101 ) ) ;
#19 = DATE_AND_TIME ( #170, #81 ) ;
#20 = SECURITY_CLASSIFICATION ( '', '', #135 ) ;
#21 = DIRECTION ( 'NONE',  ( -1.000000000000000000, 0.0000000000000000000, 0.0000000000000000000 ) ) ;
#22 =( NAMED_UNIT ( * ) SI_UNIT ( $, .STERADIAN. ) SOLID_ANGLE_UNIT ( ) );
#23 = DIRECTION ( 'NONE',  ( 1.000000000000000000, 0.0000000000000000000, 0.0000000000000000000 ) ) ;
#24 = ADVANCED_FACE ( 'NONE', ( #140 ), #78, .F. ) ;
#25 = APPLICATION_CONTEXT ( 'configuration controlled 3d designs of mechanical parts and assemblies' ) ;
#26 = CARTESIAN_POINT ( 'NONE',  ( 6.349999999999999645, -12.69999999999999929, 0.1662468314138130787 ) ) ;
#27 = VECTOR ( 'NONE', #40, 1000.000000000000000 ) ;
#28 = CARTESIAN_POINT ( 'NONE',  ( 0.0000000000000000000, 0.0000000000000000000, 2.000000000000000000 ) ) ;
#29 = PERSON_AND_ORGANIZATION ( #44, #32 ) ;
#30 = CYLINDRICAL_SURFACE ( 'NONE', #94, 6.349999999999999645 ) ;
#31 = ORIENTED_EDGE ( 'NONE', *, *, #174, .F. ) ;
#32 = ORGANIZATION ( 'UNSPECIFIED', 'UNSPECIFIED', '' ) ;
#33 = ORIENTED_EDGE ( 'NONE', *, *, #150, .T. ) ;
#34 = CALENDAR_DATE ( 2021, 13, 1 ) ;
#35 = UNCERTAINTY_MEASURE_WITH_UNIT (LENGTH_MEASURE( 1.000000000000000082E-05 ), #148, 'distance_accuracy_value', 'NONE');
#36 = CARTESIAN_POINT ( 'NONE',  ( 0.0000000000000000000, 0.0000000000000000000, 2.000000000000000000 ) ) ;
#37 =( NAMED_UNIT ( * ) PLANE_ANGLE_UNIT ( ) SI_UNIT ( $, .RADIAN. ) );
#38 = APPROVAL_PERSON_ORGANIZATION ( #58, #16, #56 ) ;
#39 = CARTESIAN_POINT ( 'NONE',  ( 0.0000000000000000000, 0.0000000000000000000, 0.0000000000000000000 ) ) ;
#40 = DIRECTION ( 'NONE',  ( -0.0000000000000000000, -0.0000000000000000000, -1.000000000000000000 ) ) ;
#41 = DATE_TIME_ROLE ( 'classification_date' ) ;
#42 = FACE_OUTER_BOUND ( 'NONE', #72, .T. ) ;
#43 = PRODUCT_DEFINITION_SHAPE ( 'NONE', 'NONE',  #52 ) ;
#44 = PERSON ( 'UNSPECIFIED', 'UNSPECIFIED', 'UNSPECIFIED', ('UNSPECIFIED'), ('UNSPECIFIED'), ('UNSPECIFIED') ) ;
#45 = PERSON_AND_ORGANIZATION ( #44, #32 ) ;
#46 = ORIENTED_EDGE ( 'NONE', *, *, #150, .F. ) ;
#47 = ORIENTED_EDGE ( 'NONE', *, *, #13, .F. ) ;
#48 = DIRECTION ( 'NONE',  ( 0.0000000000000000000, 0.0000000000000000000, 1.000000000000000000 ) ) ;
#49 = COORDINATED_UNIVERSAL_TIME_OFFSET ( 5, 0, .BEHIND. ) ;
#50 = CARTESIAN_POINT ( 'NONE',  ( -6.349999999999999645, 0.0000000000000000000, 0.05541561047127104012 ) ) ;
#51 = DATE_TIME_ROLE ( 'creation_date' ) ;
#52 = PRODUCT_DEFINITION ( 'UNKNOWN', '', #101, #154 ) ;
#53 = CALENDAR_DATE ( 2021, 13, 1 ) ;
#54 = CARTESIAN_POINT ( 'NONE',  ( 6.349999999999999645, 7.776507174585692163E-16, 2.000000000000000000 ) ) ;
#55 = CC_DESIGN_SECURITY_CLASSIFICATION ( #20, ( #101 ) ) ;
#56 = APPROVAL_ROLE ( '' ) ;
#57 = DATE_AND_TIME ( #136, #70 ) ;
#58 = PERSON_AND_ORGANIZATION ( #44, #32 ) ;
#59 = FACE_OUTER_BOUND ( 'NONE', #73, .T. ) ;
#60 = PERSON_AND_ORGANIZATION ( #44, #32 ) ;
#61 = CARTESIAN_POINT ( 'NONE',  ( 0.0000000000000000000, 0.0000000000000000000, 2.000000000000000000 ) ) ;
#62 = APPROVAL_PERSON_ORGANIZATION ( #121, #75, #3 ) ;
#63 = EDGE_LOOP ( 'NONE', ( #158, #125 ) ) ;
#64 = ADVANCED_FACE ( 'NONE', ( #42 ), #30, .T. ) ;
#65 = DIRECTION ( 'NONE',  ( 0.0000000000000000000, 0.0000000000000000000, 1.000000000000000000 ) ) ;
#66 = PERSON_AND_ORGANIZATION_ROLE ( 'design_owner' ) ;
#67 = ADVANCED_FACE ( 'NONE', ( #161 ), #144, .T. ) ;
#68 = ORIENTED_EDGE ( 'NONE', *, *, #86, .F. ) ;
#69 = APPROVAL_ROLE ( '' ) ;
#70 = LOCAL_TIME ( 11, 35, 12.00000000000000000, #117 ) ;
#71 = CARTESIAN_POINT ( 'NONE',  ( 6.349999999999999645, 7.776507174585692163E-16, 0.05541561047127104012 ) ) ;
#72 = EDGE_LOOP ( 'NONE', ( #68, #2, #77, #149 ) ) ;
#73 = EDGE_LOOP ( 'NONE', ( #116, #47, #111, #33 ) ) ;
#74 = APPROVAL_PERSON_ORGANIZATION ( #45, #114, #69 ) ;
#75 = APPROVAL ( #82, 'UNSPECIFIED' ) ;
#76 = VERTEX_POINT ( 'NONE', #7 ) ;
#77 = ORIENTED_EDGE ( 'NONE', *, *, #174, .T. ) ;
#78 = PLANE ( 'NONE',  #146 ) ;
#79 = DIRECTION ( 'NONE',  ( 1.000000000000000000, 0.0000000000000000000, 0.0000000000000000000 ) ) ;
#80 = CARTESIAN_POINT ( 'NONE',  ( 0.0000000000000000000, 0.0000000000000000000, 2.000000000000000000 ) ) ;
#81 = LOCAL_TIME ( 11, 35, 12.00000000000000000, #99 ) ;
#82 = APPROVAL_STATUS ( 'not_yet_approved' ) ;
#83 = PERSON_AND_ORGANIZATION_ROLE ( 'creator' ) ;
#84 = CARTESIAN_POINT ( 'NONE',  ( -6.349999999999999645, 0.0000000000000000000, 0.05541561047127104012 ) ) ;
#85 = CC_DESIGN_APPROVAL ( #75, ( #52 ) ) ;
#86 = EDGE_CURVE ( 'NONE', #112, #76, #93, .T. ) ;
#87 = SHAPE_DEFINITION_REPRESENTATION ( #43, #122 ) ;
#88 = APPROVAL_DATE_TIME ( #157, #16 ) ;
#89 = CALENDAR_DATE ( 2021, 13, 1 ) ;
#90 = APPROVAL_DATE_TIME ( #19, #114 ) ;
#91 = CC_DESIGN_DATE_AND_TIME_ASSIGNMENT ( #57, #51, ( #52 ) ) ;
#92 = CC_DESIGN_DATE_AND_TIME_ASSIGNMENT ( #175, #41, ( #20 ) ) ;
#93 = CIRCLE ( 'NONE', #115, 6.349999999999999645 ) ;
#94 = AXIS2_PLACEMENT_3D ( 'NONE', #36, #124, #142 ) ;
#95 = APPLICATION_CONTEXT ( 'configuration controlled 3d designs of mechanical parts and assemblies' ) ;
#96 = CARTESIAN_POINT ( 'NONE',  ( 6.350000000000004974, 12.69999999999999929, -0.05541561047127099154 ) ) ;
#97 = CARTESIAN_POINT ( 'NONE',  ( 6.349999999999999645, 7.776507174585692163E-16, 0.05541561047127104012 ) ) ;
#98 = PERSON_AND_ORGANIZATION ( #44, #32 ) ;
#99 = COORDINATED_UNIVERSAL_TIME_OFFSET ( 5, 0, .BEHIND. ) ;
#100 = VERTEX_POINT ( 'NONE', #50 ) ;
#101 = PRODUCT_DEFINITION_FORMATION_WITH_SPECIFIED_SOURCE ( 'ANY', '', #118, .NOT_KNOWN. ) ;
#102 = AXIS2_PLACEMENT_3D ( 'NONE', #141, #103, #21 ) ;
#103 = DIRECTION ( 'NONE',  ( -0.0000000000000000000, -0.0000000000000000000, -1.000000000000000000 ) ) ;
#104 = MANIFOLD_SOLID_BREP ( 'Cut-Extrude1', #139 ) ;
#105 = APPROVAL_DATE_TIME ( #152, #75 ) ;
#106 = VERTEX_POINT ( 'NONE', #97 ) ;
#107 = CARTESIAN_POINT ( 'NONE',  ( -6.349999999999999645, -6.349999999999999645, 0.1108312209425420525 ) ) ;
#108 = DIRECTION ( 'NONE',  ( 0.0000000000000000000, 0.008726535498366490978, 0.9999619230641714207 ) ) ;
#109 = DIRECTION ( 'NONE',  ( 0.0000000000000000000, 0.0000000000000000000, 1.000000000000000000 ) ) ;
#110 = DIRECTION ( 'NONE',  ( 1.000000000000000000, 0.0000000000000000000, -0.0000000000000000000 ) ) ;
#111 = ORIENTED_EDGE ( 'NONE', *, *, #159, .T. ) ;
#112 = VERTEX_POINT ( 'NONE', #54 ) ;
#113 = CARTESIAN_POINT ( 'NONE',  ( 6.349999999999999645, 7.776507174585692163E-16, 0.05541561047127104012 ) ) ;
#114 = APPROVAL ( #145, 'UNSPECIFIED' ) ;
#115 = AXIS2_PLACEMENT_3D ( 'NONE', #28, #65, #169 ) ;
#116 = ORIENTED_EDGE ( 'NONE', *, *, #6, .F. ) ;
#117 = COORDINATED_UNIVERSAL_TIME_OFFSET ( 5, 0, .BEHIND. ) ;
#118 = PRODUCT ( 'ISP Wedged Parts_16808', 'ISP Wedged Parts_16808', '', ( #130 ) ) ;
#119 = CARTESIAN_POINT ( 'NONE',  ( 6.349999999999999645, 7.776507174585692163E-16, 2.000000000000000000 ) ) ;
#120 = CC_DESIGN_PERSON_AND_ORGANIZATION_ASSIGNMENT ( #29, #83, ( #101 ) ) ;
#121 = PERSON_AND_ORGANIZATION ( #44, #32 ) ;
#122 = ADVANCED_BREP_SHAPE_REPRESENTATION ( 'ISP Wedged Parts_16808', ( #104, #163 ), #143 ) ;
#123 = CARTESIAN_POINT ( 'NONE',  ( -6.350000000000002309, 12.69999999999999929, -0.05541561047127101236 ) ) ;
#124 = DIRECTION ( 'NONE',  ( -0.0000000000000000000, -0.0000000000000000000, -1.000000000000000000 ) ) ;
#125 = ORIENTED_EDGE ( 'NONE', *, *, #86, .T. ) ;
#126 = LOCAL_TIME ( 11, 35, 12.00000000000000000, #127 ) ;
#127 = COORDINATED_UNIVERSAL_TIME_OFFSET ( 5, 0, .BEHIND. ) ;
#128 =( BOUNDED_CURVE ( )  B_SPLINE_CURVE ( 3, ( #84, #167, #26, #113 ),
 .UNSPECIFIED., .F., .F. ) 
 B_SPLINE_CURVE_WITH_KNOTS ( ( 4, 4 ),
 ( 1.570796326794896558, 4.712388980384689674 ),
 .UNSPECIFIED. ) 
 CURVE ( )  GEOMETRIC_REPRESENTATION_ITEM ( )  RATIONAL_B_SPLINE_CURVE ( ( 1.000000000000000000, 0.3333333333333333703, 0.3333333333333333703, 1.000000000000000000 ) ) 
 REPRESENTATION_ITEM ( '' )  );
#129 = PERSON_AND_ORGANIZATION ( #44, #32 ) ;
#130 = MECHANICAL_CONTEXT ( 'NONE', #95, 'mechanical' ) ;
#131 = PERSON_AND_ORGANIZATION_ROLE ( 'creator' ) ;
#132 = PERSON_AND_ORGANIZATION ( #44, #32 ) ;
#133 = DIRECTION ( 'NONE',  ( 0.0000000000000000000, -0.9999619230641713097, 0.008726535498366489244 ) ) ;
#134 = AXIS2_PLACEMENT_3D ( 'NONE', #61, #162, #79 ) ;
#135 = SECURITY_CLASSIFICATION_LEVEL ( 'unclassified' ) ;
#136 = CALENDAR_DATE ( 2021, 13, 1 ) ;
#137 = AXIS2_PLACEMENT_3D ( 'NONE', #80, #48, #110 ) ;
#138 = LINE ( 'NONE', #12, #27 ) ;
#139 = CLOSED_SHELL ( 'NONE', ( #64, #8, #67, #24 ) ) ;
#140 = FACE_OUTER_BOUND ( 'NONE', #172, .T. ) ;
#141 = CARTESIAN_POINT ( 'NONE',  ( 0.0000000000000000000, 0.0000000000000000000, 2.000000000000000000 ) ) ;
#142 = DIRECTION ( 'NONE',  ( -1.000000000000000000, 0.0000000000000000000, 0.0000000000000000000 ) ) ;
#143 =( GEOMETRIC_REPRESENTATION_CONTEXT ( 3 ) GLOBAL_UNCERTAINTY_ASSIGNED_CONTEXT ( ( #35 ) ) GLOBAL_UNIT_ASSIGNED_CONTEXT ( ( #148, #37, #22 ) ) REPRESENTATION_CONTEXT ( 'NONE', 'WORKASPACE' ) );
#144 = PLANE ( 'NONE',  #137 ) ;
#145 = APPROVAL_STATUS ( 'not_yet_approved' ) ;
#146 = AXIS2_PLACEMENT_3D ( 'NONE', #107, #108, #133 ) ;
#147 = APPLICATION_PROTOCOL_DEFINITION ( 'international standard', 'config_control_design', 1994, #95 ) ;
#148 =( LENGTH_UNIT ( ) NAMED_UNIT ( * ) SI_UNIT ( .MILLI., .METRE. ) );
#149 = ORIENTED_EDGE ( 'NONE', *, *, #159, .F. ) ;
#150 = EDGE_CURVE ( 'NONE', #100, #106, #128, .T. ) ;
#151 = APPROVAL_STATUS ( 'not_yet_approved' ) ;
#152 = DATE_AND_TIME ( #89, #173 ) ;
#153 =( BOUNDED_CURVE ( )  B_SPLINE_CURVE ( 3, ( #71, #96, #123, #165 ),
 .UNSPECIFIED., .F., .F. ) 
 B_SPLINE_CURVE_WITH_KNOTS ( ( 4, 4 ),
 ( 4.712388980384689674, 7.853981633974482790 ),
 .UNSPECIFIED. ) 
 CURVE ( )  GEOMETRIC_REPRESENTATION_ITEM ( )  RATIONAL_B_SPLINE_CURVE ( ( 1.000000000000000000, 0.3333333333333333703, 0.3333333333333333703, 1.000000000000000000 ) ) 
 REPRESENTATION_ITEM ( '' )  );
#154 = DESIGN_CONTEXT ( 'detailed design', #25, 'design' ) ;
#155 = CC_DESIGN_PERSON_AND_ORGANIZATION_ASSIGNMENT ( #129, #66, ( #118 ) ) ;
#156 = CC_DESIGN_PERSON_AND_ORGANIZATION_ASSIGNMENT ( #98, #15, ( #20 ) ) ;
#157 = DATE_AND_TIME ( #53, #126 ) ;
#158 = ORIENTED_EDGE ( 'NONE', *, *, #13, .T. ) ;
#159 = EDGE_CURVE ( 'NONE', #76, #100, #138, .T. ) ;
#160 = DIRECTION ( 'NONE',  ( -0.0000000000000000000, -0.0000000000000000000, -1.000000000000000000 ) ) ;
#161 = FACE_OUTER_BOUND ( 'NONE', #63, .T. ) ;
#162 = DIRECTION ( 'NONE',  ( 0.0000000000000000000, 0.0000000000000000000, 1.000000000000000000 ) ) ;
#163 = AXIS2_PLACEMENT_3D ( 'NONE', #39, #109, #23 ) ;
#164 = CIRCLE ( 'NONE', #134, 6.349999999999999645 ) ;
#165 = CARTESIAN_POINT ( 'NONE',  ( -6.349999999999999645, 0.0000000000000000000, 0.05541561047127104012 ) ) ;
#166 = APPLICATION_PROTOCOL_DEFINITION ( 'international standard', 'config_control_design', 1994, #25 ) ;
#167 = CARTESIAN_POINT ( 'NONE',  ( -6.350000000000002309, -12.69999999999999929, 0.1662468314138130510 ) ) ;
#168 = PRODUCT_RELATED_PRODUCT_CATEGORY ( 'detail', '', ( #118 ) ) ;
#169 = DIRECTION ( 'NONE',  ( 1.000000000000000000, 0.0000000000000000000, 0.0000000000000000000 ) ) ;
#170 = CALENDAR_DATE ( 2021, 13, 1 ) ;
#171 = CC_DESIGN_APPROVAL ( #114, ( #101 ) ) ;
#172 = EDGE_LOOP ( 'NONE', ( #46, #31 ) ) ;
#173 = LOCAL_TIME ( 11, 35, 12.00000000000000000, #4 ) ;
#174 = EDGE_CURVE ( 'NONE', #106, #100, #153, .T. ) ;
#175 = DATE_AND_TIME ( #34, #14 ) ;
ENDSEC;
END-ISO-10303-21;
