ISO-10303-21;
HEADER;
FILE_DESCRIPTION (( 'STEP AP203' ),
    '1' );
FILE_NAME ('Web Model 14967_14993.step',
    '2020-07-27T18:48:48',
    ( '' ),
    ( '' ),
    'SwSTEP 2.0',
    'SolidWorks 2018',
    '' );
FILE_SCHEMA (( 'CONFIG_CONTROL_DESIGN' ));
ENDSEC;

DATA;
#1 = VECTOR ( 'NONE', #109, 1000.000000000000000 ) ;
#2 = DIRECTION ( 'NONE',  ( -1.000000000000000000, -0.0000000000000000000, -0.0000000000000000000 ) ) ;
#3 = UNCERTAINTY_MEASURE_WITH_UNIT (LENGTH_MEASURE( 1.000000000000000082E-05 ), #34, 'distance_accuracy_value', 'NONE');
#4 = PRODUCT_DEFINITION ( 'UNKNOWN', '', #37, #35 ) ;
#5 = EDGE_LOOP ( 'NONE', ( #103, #111, #14, #27 ) ) ;
#6 = CC_DESIGN_DATE_AND_TIME_ASSIGNMENT ( #21, #76, ( #4 ) ) ;
#7 = EDGE_LOOP ( 'NONE', ( #106, #61 ) ) ;
#8 = AXIS2_PLACEMENT_3D ( 'NONE', #110, #168, #32 ) ;
#9 = DATE_AND_TIME ( #71, #59 ) ;
#10 = DIRECTION ( 'NONE',  ( 0.0000000000000000000, 0.0000000000000000000, 1.000000000000000000 ) ) ;
#11 = AXIS2_PLACEMENT_3D ( 'NONE', #167, #16, #142 ) ;
#12 = DATE_AND_TIME ( #159, #24 ) ;
#13 = DIRECTION ( 'NONE',  ( 0.0000000000000000000, 0.0000000000000000000, -1.000000000000000000 ) ) ;
#14 = ORIENTED_EDGE ( 'NONE', *, *, #65, .T. ) ;
#15 = CARTESIAN_POINT ( 'NONE',  ( -2.000000000000000000, 4.592425496802575156E-15, -37.50000000000000711 ) ) ;
#16 = DIRECTION ( 'NONE',  ( 1.000000000000000000, 0.0000000000000000000, 0.0000000000000000000 ) ) ;
#17 = SECURITY_CLASSIFICATION_LEVEL ( 'unclassified' ) ;
#18 = CALENDAR_DATE ( 2020, 27, 7 ) ;
#19 =( NAMED_UNIT ( * ) PLANE_ANGLE_UNIT ( ) SI_UNIT ( $, .RADIAN. ) );
#20 = APPROVAL_STATUS ( 'not_yet_approved' ) ;
#21 = DATE_AND_TIME ( #18, #147 ) ;
#22 = FACE_OUTER_BOUND ( 'NONE', #47, .T. ) ;
#23 = APPROVAL_DATE_TIME ( #9, #105 ) ;
#24 = LOCAL_TIME ( 14, 48, 48.00000000000000000, #107 ) ;
#25 = CC_DESIGN_PERSON_AND_ORGANIZATION_ASSIGNMENT ( #121, #36, ( #137 ) ) ;
#26 = CIRCLE ( 'NONE', #88, 37.50000000000000711 ) ;
#27 = ORIENTED_EDGE ( 'NONE', *, *, #116, .T. ) ;
#28 = ADVANCED_BREP_SHAPE_REPRESENTATION ( 'Web Model 14967_14993', ( #53, #38 ), #136 ) ;
#29 = CIRCLE ( 'NONE', #42, 37.50000000000000711 ) ;
#30 = CARTESIAN_POINT ( 'NONE',  ( 2.000000000000000000, 0.0000000000000000000, 0.0000000000000000000 ) ) ;
#31 = SECURITY_CLASSIFICATION ( '', '', #17 ) ;
#32 = DIRECTION ( 'NONE',  ( 0.0000000000000000000, 0.0000000000000000000, -1.000000000000000000 ) ) ;
#33 = DIRECTION ( 'NONE',  ( 1.000000000000000000, 0.0000000000000000000, 0.0000000000000000000 ) ) ;
#34 =( LENGTH_UNIT ( ) NAMED_UNIT ( * ) SI_UNIT ( .MILLI., .METRE. ) );
#35 = DESIGN_CONTEXT ( 'detailed design', #84, 'design' ) ;
#36 = PERSON_AND_ORGANIZATION_ROLE ( 'design_owner' ) ;
#37 = PRODUCT_DEFINITION_FORMATION_WITH_SPECIFIED_SOURCE ( 'ANY', '', #137, .NOT_KNOWN. ) ;
#38 = AXIS2_PLACEMENT_3D ( 'NONE', #148, #128, #33 ) ;
#39 = CALENDAR_DATE ( 2020, 27, 7 ) ;
#40 = CC_DESIGN_APPROVAL ( #52, ( #31 ) ) ;
#41 = EDGE_LOOP ( 'NONE', ( #72, #130, #79, #118 ) ) ;
#42 = AXIS2_PLACEMENT_3D ( 'NONE', #123, #45, #13 ) ;
#43 = AXIS2_PLACEMENT_3D ( 'NONE', #30, #96, #10 ) ;
#44 = CARTESIAN_POINT ( 'NONE',  ( 2.000000000000000000, 0.0000000000000000000, 0.0000000000000000000 ) ) ;
#45 = DIRECTION ( 'NONE',  ( 1.000000000000000000, 0.0000000000000000000, 0.0000000000000000000 ) ) ;
#46 = CARTESIAN_POINT ( 'NONE',  ( 2.000000000000000000, 0.0000000000000000000, 37.50000000000000711 ) ) ;
#47 = EDGE_LOOP ( 'NONE', ( #51, #170 ) ) ;
#48 = APPLICATION_PROTOCOL_DEFINITION ( 'international standard', 'config_control_design', 1994, #144 ) ;
#49 = MECHANICAL_CONTEXT ( 'NONE', #144, 'mechanical' ) ;
#50 = APPROVAL_STATUS ( 'not_yet_approved' ) ;
#51 = ORIENTED_EDGE ( 'NONE', *, *, #116, .F. ) ;
#52 = APPROVAL ( #20, 'UNSPECIFIED' ) ;
#53 = MANIFOLD_SOLID_BREP ( 'Boss-Extrude1', #70 ) ;
#54 = CALENDAR_DATE ( 2020, 27, 7 ) ;
#55 = CC_DESIGN_APPROVAL ( #105, ( #37 ) ) ;
#56 = LOCAL_TIME ( 14, 48, 48.00000000000000000, #158 ) ;
#57 = APPROVAL_DATE_TIME ( #90, #52 ) ;
#58 = PLANE ( 'NONE',  #11 ) ;
#59 = LOCAL_TIME ( 14, 48, 48.00000000000000000, #87 ) ;
#60 = DIRECTION ( 'NONE',  ( -1.000000000000000000, -0.0000000000000000000, -0.0000000000000000000 ) ) ;
#61 = ORIENTED_EDGE ( 'NONE', *, *, #161, .T. ) ;
#62 = ADVANCED_FACE ( 'NONE', ( #22 ), #58, .F. ) ;
#63 = ORGANIZATION ( 'UNSPECIFIED', 'UNSPECIFIED', '' ) ;
#64 =( NAMED_UNIT ( * ) SI_UNIT ( $, .STERADIAN. ) SOLID_ANGLE_UNIT ( ) );
#65 = EDGE_CURVE ( 'NONE', #151, #122, #68, .T. ) ;
#66 = DIRECTION ( 'NONE',  ( 1.000000000000000000, 0.0000000000000000000, 0.0000000000000000000 ) ) ;
#67 = APPROVAL_DATE_TIME ( #138, #112 ) ;
#68 = LINE ( 'NONE', #46, #143 ) ;
#69 = APPROVAL_PERSON_ORGANIZATION ( #92, #112, #104 ) ;
#70 = CLOSED_SHELL ( 'NONE', ( #145, #113, #100, #62 ) ) ;
#71 = CALENDAR_DATE ( 2020, 27, 7 ) ;
#72 = ORIENTED_EDGE ( 'NONE', *, *, #161, .F. ) ;
#73 = DIRECTION ( 'NONE',  ( 1.000000000000000000, 0.0000000000000000000, 0.0000000000000000000 ) ) ;
#74 = APPLICATION_PROTOCOL_DEFINITION ( 'international standard', 'config_control_design', 1994, #84 ) ;
#75 = DIRECTION ( 'NONE',  ( 1.000000000000000000, 0.0000000000000000000, 0.0000000000000000000 ) ) ;
#76 = DATE_TIME_ROLE ( 'creation_date' ) ;
#77 = PERSON ( 'UNSPECIFIED', 'UNSPECIFIED', 'UNSPECIFIED', ('UNSPECIFIED'), ('UNSPECIFIED'), ('UNSPECIFIED') ) ;
#78 = VERTEX_POINT ( 'NONE', #15 ) ;
#79 = ORIENTED_EDGE ( 'NONE', *, *, #131, .T. ) ;
#80 = CYLINDRICAL_SURFACE ( 'NONE', #91, 37.50000000000000711 ) ;
#81 = CARTESIAN_POINT ( 'NONE',  ( -2.000000000000000000, 0.0000000000000000000, 0.0000000000000000000 ) ) ;
#82 = APPROVAL_PERSON_ORGANIZATION ( #117, #52, #114 ) ;
#83 = PERSON_AND_ORGANIZATION_ROLE ( 'classification_officer' ) ;
#84 = APPLICATION_CONTEXT ( 'configuration controlled 3d designs of mechanical parts and assemblies' ) ;
#85 = EDGE_CURVE ( 'NONE', #151, #108, #29, .T. ) ;
#86 = DATE_TIME_ROLE ( 'classification_date' ) ;
#87 = COORDINATED_UNIVERSAL_TIME_OFFSET ( 5, 0, .BEHIND. ) ;
#88 = AXIS2_PLACEMENT_3D ( 'NONE', #115, #66, #124 ) ;
#89 = EDGE_CURVE ( 'NONE', #108, #78, #140, .T. ) ;
#90 = DATE_AND_TIME ( #39, #126 ) ;
#91 = AXIS2_PLACEMENT_3D ( 'NONE', #44, #60, #127 ) ;
#92 = PERSON_AND_ORGANIZATION ( #77, #63 ) ;
#93 = FACE_OUTER_BOUND ( 'NONE', #7, .T. ) ;
#94 = CC_DESIGN_APPROVAL ( #112, ( #4 ) ) ;
#95 = PERSON_AND_ORGANIZATION ( #77, #63 ) ;
#96 = DIRECTION ( 'NONE',  ( -1.000000000000000000, -0.0000000000000000000, -0.0000000000000000000 ) ) ;
#97 = PERSON_AND_ORGANIZATION ( #77, #63 ) ;
#98 = CARTESIAN_POINT ( 'NONE',  ( 2.000000000000000000, 4.592425496802575156E-15, -37.50000000000000711 ) ) ;
#99 = CC_DESIGN_PERSON_AND_ORGANIZATION_ASSIGNMENT ( #132, #125, ( #37 ) ) ;
#100 = ADVANCED_FACE ( 'NONE', ( #93 ), #139, .T. ) ;
#101 = CARTESIAN_POINT ( 'NONE',  ( 2.000000000000000000, 0.0000000000000000000, 37.50000000000000711 ) ) ;
#102 = PERSON_AND_ORGANIZATION_ROLE ( 'creator' ) ;
#103 = ORIENTED_EDGE ( 'NONE', *, *, #89, .F. ) ;
#104 = APPROVAL_ROLE ( '' ) ;
#105 = APPROVAL ( #154, 'UNSPECIFIED' ) ;
#106 = ORIENTED_EDGE ( 'NONE', *, *, #85, .T. ) ;
#107 = COORDINATED_UNIVERSAL_TIME_OFFSET ( 5, 0, .BEHIND. ) ;
#108 = VERTEX_POINT ( 'NONE', #98 ) ;
#109 = DIRECTION ( 'NONE',  ( -1.000000000000000000, -0.0000000000000000000, -0.0000000000000000000 ) ) ;
#110 = CARTESIAN_POINT ( 'NONE',  ( 2.000000000000000000, 0.0000000000000000000, 0.0000000000000000000 ) ) ;
#111 = ORIENTED_EDGE ( 'NONE', *, *, #85, .F. ) ;
#112 = APPROVAL ( #50, 'UNSPECIFIED' ) ;
#113 = ADVANCED_FACE ( 'NONE', ( #153 ), #174, .T. ) ;
#114 = APPROVAL_ROLE ( '' ) ;
#115 = CARTESIAN_POINT ( 'NONE',  ( -2.000000000000000000, 0.0000000000000000000, 0.0000000000000000000 ) ) ;
#116 = EDGE_CURVE ( 'NONE', #122, #78, #133, .T. ) ;
#117 = PERSON_AND_ORGANIZATION ( #77, #63 ) ;
#118 = ORIENTED_EDGE ( 'NONE', *, *, #65, .F. ) ;
#119 = SHAPE_DEFINITION_REPRESENTATION ( #141, #28 ) ;
#120 = CARTESIAN_POINT ( 'NONE',  ( -2.000000000000000000, 0.0000000000000000000, 37.50000000000000711 ) ) ;
#121 = PERSON_AND_ORGANIZATION ( #77, #63 ) ;
#122 = VERTEX_POINT ( 'NONE', #120 ) ;
#123 = CARTESIAN_POINT ( 'NONE',  ( 2.000000000000000000, 0.0000000000000000000, 0.0000000000000000000 ) ) ;
#124 = DIRECTION ( 'NONE',  ( 0.0000000000000000000, 0.0000000000000000000, -1.000000000000000000 ) ) ;
#125 = PERSON_AND_ORGANIZATION_ROLE ( 'creator' ) ;
#126 = LOCAL_TIME ( 14, 48, 48.00000000000000000, #135 ) ;
#127 = DIRECTION ( 'NONE',  ( 0.0000000000000000000, 0.0000000000000000000, 1.000000000000000000 ) ) ;
#128 = DIRECTION ( 'NONE',  ( 0.0000000000000000000, 0.0000000000000000000, 1.000000000000000000 ) ) ;
#129 = DIRECTION ( 'NONE',  ( 0.0000000000000000000, 0.0000000000000000000, -1.000000000000000000 ) ) ;
#130 = ORIENTED_EDGE ( 'NONE', *, *, #89, .T. ) ;
#131 = EDGE_CURVE ( 'NONE', #78, #122, #26, .T. ) ;
#132 = PERSON_AND_ORGANIZATION ( #77, #63 ) ;
#133 = CIRCLE ( 'NONE', #163, 37.50000000000000711 ) ;
#134 = AXIS2_PLACEMENT_3D ( 'NONE', #155, #75, #171 ) ;
#135 = COORDINATED_UNIVERSAL_TIME_OFFSET ( 5, 0, .BEHIND. ) ;
#136 =( GEOMETRIC_REPRESENTATION_CONTEXT ( 3 ) GLOBAL_UNCERTAINTY_ASSIGNED_CONTEXT ( ( #3 ) ) GLOBAL_UNIT_ASSIGNED_CONTEXT ( ( #34, #19, #64 ) ) REPRESENTATION_CONTEXT ( 'NONE', 'WORKASPACE' ) );
#137 = PRODUCT ( 'Web Model 14967_14993', 'Web Model 14967_14993', '', ( #49 ) ) ;
#138 = DATE_AND_TIME ( #54, #56 ) ;
#139 = PLANE ( 'NONE',  #8 ) ;
#140 = LINE ( 'NONE', #164, #1 ) ;
#141 = PRODUCT_DEFINITION_SHAPE ( 'NONE', 'NONE',  #4 ) ;
#142 = DIRECTION ( 'NONE',  ( 0.0000000000000000000, 0.0000000000000000000, -1.000000000000000000 ) ) ;
#143 = VECTOR ( 'NONE', #2, 1000.000000000000000 ) ;
#144 = APPLICATION_CONTEXT ( 'configuration controlled 3d designs of mechanical parts and assemblies' ) ;
#145 = ADVANCED_FACE ( 'NONE', ( #173 ), #80, .T. ) ;
#146 = PERSON_AND_ORGANIZATION_ROLE ( 'design_supplier' ) ;
#147 = LOCAL_TIME ( 14, 48, 48.00000000000000000, #156 ) ;
#148 = CARTESIAN_POINT ( 'NONE',  ( 0.0000000000000000000, 0.0000000000000000000, 0.0000000000000000000 ) ) ;
#149 = CC_DESIGN_PERSON_AND_ORGANIZATION_ASSIGNMENT ( #97, #83, ( #31 ) ) ;
#150 = APPROVAL_PERSON_ORGANIZATION ( #172, #105, #152 ) ;
#151 = VERTEX_POINT ( 'NONE', #101 ) ;
#152 = APPROVAL_ROLE ( '' ) ;
#153 = FACE_OUTER_BOUND ( 'NONE', #5, .T. ) ;
#154 = APPROVAL_STATUS ( 'not_yet_approved' ) ;
#155 = CARTESIAN_POINT ( 'NONE',  ( 2.000000000000000000, 0.0000000000000000000, 0.0000000000000000000 ) ) ;
#156 = COORDINATED_UNIVERSAL_TIME_OFFSET ( 5, 0, .BEHIND. ) ;
#157 = CC_DESIGN_SECURITY_CLASSIFICATION ( #31, ( #37 ) ) ;
#158 = COORDINATED_UNIVERSAL_TIME_OFFSET ( 5, 0, .BEHIND. ) ;
#159 = CALENDAR_DATE ( 2020, 27, 7 ) ;
#160 = CC_DESIGN_DATE_AND_TIME_ASSIGNMENT ( #12, #86, ( #31 ) ) ;
#161 = EDGE_CURVE ( 'NONE', #108, #151, #166, .T. ) ;
#162 = PERSON_AND_ORGANIZATION ( #77, #63 ) ;
#163 = AXIS2_PLACEMENT_3D ( 'NONE', #81, #73, #129 ) ;
#164 = CARTESIAN_POINT ( 'NONE',  ( 2.000000000000000000, 4.592425496802575156E-15, -37.50000000000000711 ) ) ;
#165 = CC_DESIGN_PERSON_AND_ORGANIZATION_ASSIGNMENT ( #95, #102, ( #4 ) ) ;
#166 = CIRCLE ( 'NONE', #134, 37.50000000000000711 ) ;
#167 = CARTESIAN_POINT ( 'NONE',  ( -2.000000000000000000, 0.0000000000000000000, 0.0000000000000000000 ) ) ;
#168 = DIRECTION ( 'NONE',  ( 1.000000000000000000, 0.0000000000000000000, 0.0000000000000000000 ) ) ;
#169 = CC_DESIGN_PERSON_AND_ORGANIZATION_ASSIGNMENT ( #162, #146, ( #37 ) ) ;
#170 = ORIENTED_EDGE ( 'NONE', *, *, #131, .F. ) ;
#171 = DIRECTION ( 'NONE',  ( 0.0000000000000000000, 0.0000000000000000000, -1.000000000000000000 ) ) ;
#172 = PERSON_AND_ORGANIZATION ( #77, #63 ) ;
#173 = FACE_OUTER_BOUND ( 'NONE', #41, .T. ) ;
#174 = CYLINDRICAL_SURFACE ( 'NONE', #43, 37.50000000000000711 ) ;
#175 = PRODUCT_RELATED_PRODUCT_CATEGORY ( 'detail', '', ( #137 ) ) ;
ENDSEC;
END-ISO-10303-21;
