ISO-10303-21;
HEADER;
FILE_DESCRIPTION (( 'STEP AP214' ),
    '1' );
FILE_NAME ('4886-E0W.step',
    '2007-11-09T02:01:29',
    ( ' ' ),
    ( ' ' ),
    'SwSTEP 2.0',
    'SolidWorks 2007',
    '' );
FILE_SCHEMA (( 'AUTOMOTIVE_DESIGN' ));
ENDSEC;

DATA;
#1 =( CONVERSION_BASED_UNIT ( 'INCH', #100 ) LENGTH_UNIT ( ) NAMED_UNIT ( #101 ) );
#2 =( NAMED_UNIT ( * ) PLANE_ANGLE_UNIT ( ) SI_UNIT ( $, .RADIAN. ) );
#3 =( NAMED_UNIT ( * ) SI_UNIT ( $, .STERADIAN. ) SOLID_ANGLE_UNIT ( ) );
#4 =( GEOMETRIC_REPRESENTATION_CONTEXT ( 3 ) GLOBAL_UNCERTAINTY_ASSIGNED_CONTEXT ( ( #5 ) ) GLOBAL_UNIT_ASSIGNED_CONTEXT ( ( #1, #2, #3 ) ) REPRESENTATION_CONTEXT ( 'NONE', 'WORKASPACE' ) );
#5 = UNCERTAINTY_MEASURE_WITH_UNIT (LENGTH_MEASURE( 1.000000000000000100E-005 ), #1, 'distance_accuracy_value', 'NONE');
#6 = PRODUCT_RELATED_PRODUCT_CATEGORY ( 'part', '', ( #324 ) ) ;
#7 = ADVANCED_FACE ( 'NONE', ( #44 ), #83, .F. ) ;
#8 = EDGE_LOOP ( 'NONE', ( #9, #12, #59, #61 ) ) ;
#9 = ORIENTED_EDGE ( 'NONE', *, *, #10, .F. ) ;
#10 = EDGE_CURVE ( 'NONE', #11, #73, #79, .T. ) ;
#11 = VERTEX_POINT ( 'NONE', #131 ) ;
#12 = ORIENTED_EDGE ( 'NONE', *, *, #13, .T. ) ;
#13 = EDGE_CURVE ( 'NONE', #11, #14, #130, .T. ) ;
#14 = VERTEX_POINT ( 'NONE', #125 ) ;
#15 = ORIENTED_EDGE ( 'NONE', *, *, #16, .F. ) ;
#16 = EDGE_CURVE ( 'NONE', #17, #38, #124, .T. ) ;
#17 = VERTEX_POINT ( 'NONE', #119 ) ;
#18 = ORIENTED_EDGE ( 'NONE', *, *, #19, .F. ) ;
#19 = EDGE_CURVE ( 'NONE', #37, #17, #117, .T. ) ;
#20 = ADVANCED_FACE ( 'NONE', ( #118 ), #169, .T. ) ;
#21 = EDGE_LOOP ( 'NONE', ( #22, #25, #26, #71, #74, #77 ) ) ;
#22 = ORIENTED_EDGE ( 'NONE', *, *, #23, .T. ) ;
#23 = EDGE_CURVE ( 'NONE', #24, #37, #164, .T. ) ;
#24 = VERTEX_POINT ( 'NONE', #160 ) ;
#25 = ORIENTED_EDGE ( 'NONE', *, *, #19, .T. ) ;
#26 = ORIENTED_EDGE ( 'NONE', *, *, #27, .T. ) ;
#27 = EDGE_CURVE ( 'NONE', #17, #28, #159, .T. ) ;
#28 = VERTEX_POINT ( 'NONE', #155 ) ;
#29 = ORIENTED_EDGE ( 'NONE', *, *, #30, .T. ) ;
#30 = EDGE_CURVE ( 'NONE', #36, #38, #153, .T. ) ;
#31 = MANIFOLD_SOLID_BREP ( 'NONE', #46 ) ;
#32 = ADVANCED_FACE ( 'NONE', ( #188 ), #224, .T. ) ;
#33 = EDGE_LOOP ( 'NONE', ( #34, #29, #15, #18 ) ) ;
#34 = ORIENTED_EDGE ( 'NONE', *, *, #35, .F. ) ;
#35 = EDGE_CURVE ( 'NONE', #36, #37, #220, .T. ) ;
#36 = VERTEX_POINT ( 'NONE', #215 ) ;
#37 = VERTEX_POINT ( 'NONE', #214 ) ;
#38 = VERTEX_POINT ( 'NONE', #213 ) ;
#39 = SHAPE_DEFINITION_REPRESENTATION ( #40, #302 ) ;
#40 = PRODUCT_DEFINITION_SHAPE ( 'NONE', 'NONE',  #320 ) ;
#41 = FILL_AREA_STYLE ('',( #42 ) ) ;
#42 = FILL_AREA_STYLE_COLOUR ( '', #43 ) ;
#43 = COLOUR_RGB ( '',0.7529411764705882200, 0.7529411764705882200, 0.7529411764705882200 ) ;
#44 = FACE_OUTER_BOUND ( 'NONE', #8, .T. ) ;
#45 = ORIENTED_EDGE ( 'NONE', *, *, #50, .F. ) ;
#46 = CLOSED_SHELL ( 'NONE', ( #32, #20, #7, #62, #69, #54 ) ) ;
#47 = ORIENTED_EDGE ( 'NONE', *, *, #27, .F. ) ;
#48 = ORIENTED_EDGE ( 'NONE', *, *, #16, .T. ) ;
#49 = ORIENTED_EDGE ( 'NONE', *, *, #50, .T. ) ;
#50 = EDGE_CURVE ( 'NONE', #38, #24, #211, .T. ) ;
#51 = ORIENTED_EDGE ( 'NONE', *, *, #78, .T. ) ;
#52 = ORIENTED_EDGE ( 'NONE', *, *, #60, .F. ) ;
#53 = ORIENTED_EDGE ( 'NONE', *, *, #68, .F. ) ;
#54 = ADVANCED_FACE ( 'NONE', ( #212 ), #248, .T. ) ;
#55 = EDGE_LOOP ( 'NONE', ( #56, #57, #58, #45 ) ) ;
#56 = ORIENTED_EDGE ( 'NONE', *, *, #30, .F. ) ;
#57 = ORIENTED_EDGE ( 'NONE', *, *, #35, .T. ) ;
#58 = ORIENTED_EDGE ( 'NONE', *, *, #23, .F. ) ;
#59 = ORIENTED_EDGE ( 'NONE', *, *, #60, .T. ) ;
#60 = EDGE_CURVE ( 'NONE', #14, #76, #243, .T. ) ;
#61 = ORIENTED_EDGE ( 'NONE', *, *, #75, .T. ) ;
#62 = ADVANCED_FACE ( 'NONE', ( #238 ), #274, .F. ) ;
#63 = EDGE_LOOP ( 'NONE', ( #64, #65, #66, #67 ) ) ;
#64 = ORIENTED_EDGE ( 'NONE', *, *, #13, .F. ) ;
#65 = ORIENTED_EDGE ( 'NONE', *, *, #10, .T. ) ;
#66 = ORIENTED_EDGE ( 'NONE', *, *, #72, .T. ) ;
#67 = ORIENTED_EDGE ( 'NONE', *, *, #68, .T. ) ;
#68 = EDGE_CURVE ( 'NONE', #28, #14, #269, .T. ) ;
#69 = ADVANCED_FACE ( 'NONE', ( #264 ), #292, .T. ) ;
#70 = EDGE_LOOP ( 'NONE', ( #47, #48, #49, #51, #52, #53 ) ) ;
#71 = ORIENTED_EDGE ( 'NONE', *, *, #72, .F. ) ;
#72 = EDGE_CURVE ( 'NONE', #73, #28, #288, .T. ) ;
#73 = VERTEX_POINT ( 'NONE', #284 ) ;
#74 = ORIENTED_EDGE ( 'NONE', *, *, #75, .F. ) ;
#75 = EDGE_CURVE ( 'NONE', #76, #73, #283, .T. ) ;
#76 = VERTEX_POINT ( 'NONE', #315 ) ;
#77 = ORIENTED_EDGE ( 'NONE', *, *, #78, .F. ) ;
#78 = EDGE_CURVE ( 'NONE', #24, #76, #314, .T. ) ;
#79 = CIRCLE ( 'NONE', #135, 9.956692913385827700 ) ;
#80 = DIRECTION ( 'NONE',  ( 0.0000000000000000000, 1.000000000000000000, 0.0000000000000000000 ) ) ;
#81 = DIRECTION ( 'NONE',  ( 0.0000000000000000000, 0.0000000000000000000, 1.000000000000000000 ) ) ;
#82 = AXIS2_PLACEMENT_3D ( 'NONE', #84, #81, #80 ) ;
#83 = SPHERICAL_SURFACE ( 'NONE', #82, 9.956692913385827700 ) ;
#84 = CARTESIAN_POINT ( 'NONE',  ( 6.627776384085303900, 1.358932922870714100, 0.8722530675037537500 ) ) ;
#85 =( GEOMETRIC_REPRESENTATION_CONTEXT ( 3 ) GLOBAL_UNCERTAINTY_ASSIGNED_CONTEXT ( ( #86 ) ) GLOBAL_UNIT_ASSIGNED_CONTEXT ( ( #89, #88, #87 ) ) REPRESENTATION_CONTEXT ( 'NONE', 'WORKASPACE' ) );
#86 = UNCERTAINTY_MEASURE_WITH_UNIT (LENGTH_MEASURE( 1.000000000000000100E-005 ), #89, 'distance_accuracy_value', 'NONE');
#87 =( NAMED_UNIT ( * ) SI_UNIT ( $, .STERADIAN. ) SOLID_ANGLE_UNIT ( ) );
#88 =( NAMED_UNIT ( * ) PLANE_ANGLE_UNIT ( ) SI_UNIT ( $, .RADIAN. ) );
#89 =( CONVERSION_BASED_UNIT ( 'INCH', #90 ) LENGTH_UNIT ( ) NAMED_UNIT ( #91 ) );
#90 = LENGTH_MEASURE_WITH_UNIT ( LENGTH_MEASURE( 0.02539999999999999900 ), #92 );
#91 = DIMENSIONAL_EXPONENTS ( 1.000000000000000000, 0.0000000000000000000, 0.0000000000000000000, 0.0000000000000000000, 0.0000000000000000000, 0.0000000000000000000, 0.0000000000000000000 ) ;
#92 =( LENGTH_UNIT ( ) NAMED_UNIT ( * ) SI_UNIT ( $, .METRE. ) );
#93 = MECHANICAL_DESIGN_GEOMETRIC_PRESENTATION_REPRESENTATION (  '', ( #95 ), #85 ) ;
#94 = PRESENTATION_LAYER_ASSIGNMENT (  '', '', ( #95 ) ) ;
#95 = STYLED_ITEM ( 'NONE', ( #96 ), #7 ) ;
#96 = PRESENTATION_STYLE_ASSIGNMENT (( #97 ) ) ;
#97 = SURFACE_STYLE_USAGE ( .BOTH. , #98 ) ;
#98 = SURFACE_SIDE_STYLE ('',( #99 ) ) ;
#99 = SURFACE_STYLE_FILL_AREA ( #41 ) ;
#100 = LENGTH_MEASURE_WITH_UNIT ( LENGTH_MEASURE( 0.02539999999999999900 ), #102 );
#101 = DIMENSIONAL_EXPONENTS ( 1.000000000000000000, 0.0000000000000000000, 0.0000000000000000000, 0.0000000000000000000, 0.0000000000000000000, 0.0000000000000000000, 0.0000000000000000000 ) ;
#102 =( LENGTH_UNIT ( ) NAMED_UNIT ( * ) SI_UNIT ( $, .METRE. ) );
#103 = MECHANICAL_DESIGN_GEOMETRIC_PRESENTATION_REPRESENTATION (  '', ( #105 ), #4 ) ;
#104 = PRESENTATION_LAYER_ASSIGNMENT (  '', '', ( #105 ) ) ;
#105 = STYLED_ITEM ( 'NONE', ( #106 ), #20 ) ;
#106 = PRESENTATION_STYLE_ASSIGNMENT (( #107 ) ) ;
#107 = SURFACE_STYLE_USAGE ( .BOTH. , #108 ) ;
#108 = SURFACE_SIDE_STYLE ('',( #109 ) ) ;
#109 = SURFACE_STYLE_FILL_AREA ( #110 ) ;
#110 = FILL_AREA_STYLE ('',( #111 ) ) ;
#111 = FILL_AREA_STYLE_COLOUR ( '', #112 ) ;
#112 = COLOUR_RGB ( '',0.7529411764705882200, 0.7529411764705882200, 0.7529411764705882200 ) ;
#113 = DIRECTION ( 'NONE',  ( 0.0000000000000000000, 0.0000000000000000000, -1.000000000000000000 ) ) ;
#114 = DIRECTION ( 'NONE',  ( 1.000000000000000000, 0.0000000000000000000, 0.0000000000000000000 ) ) ;
#115 = CARTESIAN_POINT ( 'NONE',  ( -3.500350514758588700, 1.358932922870714100, 0.8722530675037537500 ) ) ;
#116 = AXIS2_PLACEMENT_3D ( 'NONE', #115, #114, #113 ) ;
#117 = CIRCLE ( 'NONE', #116, 1.000000000000003100 ) ;
#118 = FACE_OUTER_BOUND ( 'NONE', #21, .T. ) ;
#119 = CARTESIAN_POINT ( 'NONE',  ( -3.500350514758588700, 1.358932922870714100, 1.872253067503756800 ) ) ;
#120 = DIRECTION ( 'NONE',  ( 0.0000000000000000000, 0.0000000000000000000, -1.000000000000000000 ) ) ;
#121 = DIRECTION ( 'NONE',  ( 1.000000000000000000, 0.0000000000000000000, 0.0000000000000000000 ) ) ;
#122 = CARTESIAN_POINT ( 'NONE',  ( -3.500350514758588700, 1.358932922870714100, 0.8722530675037537500 ) ) ;
#123 = AXIS2_PLACEMENT_3D ( 'NONE', #122, #121, #120 ) ;
#124 = CIRCLE ( 'NONE', #123, 1.000000000000003100 ) ;
#125 = CARTESIAN_POINT ( 'NONE',  ( -3.278571771086084700, 0.3589329228707166500, 0.8722530675037538600 ) ) ;
#126 = DIRECTION ( 'NONE',  ( 0.0000000000000000000, -1.000000000000000000, 1.234678630588474800E-016 ) ) ;
#127 = DIRECTION ( 'NONE',  ( 0.0000000000000000000, 1.224606353822377300E-016, 1.000000000000000000 ) ) ;
#128 = CARTESIAN_POINT ( 'NONE',  ( 6.627776384085303900, 1.358932922870714100, 0.8722530675037537500 ) ) ;
#129 = AXIS2_PLACEMENT_3D ( 'NONE', #128, #127, #126 ) ;
#130 = CIRCLE ( 'NONE', #129, 9.956692913385827700 ) ;
#131 = CARTESIAN_POINT ( 'NONE',  ( -3.328916529300524300, 1.358932922870714800, 0.8722530675037537500 ) ) ;
#132 = DIRECTION ( 'NONE',  ( -1.000000000000000000, 0.0000000000000000000, 0.0000000000000000000 ) ) ;
#133 = DIRECTION ( 'NONE',  ( 0.0000000000000000000, 0.0000000000000000000, -1.000000000000000000 ) ) ;
#134 = CARTESIAN_POINT ( 'NONE',  ( 6.627776384085303900, 1.358932922870714100, 0.8722530675037537500 ) ) ;
#135 = AXIS2_PLACEMENT_3D ( 'NONE', #134, #133, #132 ) ;
#136 =( CONVERSION_BASED_UNIT ( 'INCH', #137 ) LENGTH_UNIT ( ) NAMED_UNIT ( #138 ) );
#137 = LENGTH_MEASURE_WITH_UNIT ( LENGTH_MEASURE( 0.02539999999999999900 ), #139 );
#138 = DIMENSIONAL_EXPONENTS ( 1.000000000000000000, 0.0000000000000000000, 0.0000000000000000000, 0.0000000000000000000, 0.0000000000000000000, 0.0000000000000000000, 0.0000000000000000000 ) ;
#139 =( LENGTH_UNIT ( ) NAMED_UNIT ( * ) SI_UNIT ( $, .METRE. ) );
#140 = MECHANICAL_DESIGN_GEOMETRIC_PRESENTATION_REPRESENTATION (  '', ( #142 ), #189 ) ;
#141 = PRESENTATION_LAYER_ASSIGNMENT (  '', '', ( #142 ) ) ;
#142 = STYLED_ITEM ( 'NONE', ( #143 ), #31 ) ;
#143 = PRESENTATION_STYLE_ASSIGNMENT (( #144 ) ) ;
#144 = SURFACE_STYLE_USAGE ( .BOTH. , #145 ) ;
#145 = SURFACE_SIDE_STYLE ('',( #146 ) ) ;
#146 = SURFACE_STYLE_FILL_AREA ( #147 ) ;
#147 = FILL_AREA_STYLE ('',( #148 ) ) ;
#148 = FILL_AREA_STYLE_COLOUR ( '', #154 ) ;
#149 = DIRECTION ( 'NONE',  ( 0.0000000000000000000, -1.000000000000000000, 1.249000902703301400E-016 ) ) ;
#150 = DIRECTION ( 'NONE',  ( 0.0000000000000000000, 1.224606353822377300E-016, 1.000000000000000000 ) ) ;
#151 = CARTESIAN_POINT ( 'NONE',  ( 16.15927244707742700, 1.358932922870714100, 0.8722530675037537500 ) ) ;
#152 = AXIS2_PLACEMENT_3D ( 'NONE', #151, #150, #149 ) ;
#153 = CIRCLE ( 'NONE', #152, 19.68503937007873700 ) ;
#154 = COLOUR_RGB ( '',0.7529411764705882200, 0.7529411764705882200, 0.7529411764705882200 ) ;
#155 = CARTESIAN_POINT ( 'NONE',  ( -3.278571771086084200, 1.358932922870714100, 1.872253067503753600 ) ) ;
#156 = DIRECTION ( 'NONE',  ( 1.000000000000000000, 0.0000000000000000000, 0.0000000000000000000 ) ) ;
#157 = VECTOR ( 'NONE', #156, 39.37007874015748100 ) ;
#158 = CARTESIAN_POINT ( 'NONE',  ( -3.328916529300524300, 1.358932922870714100, 1.872253067503755400 ) ) ;
#159 = LINE ( 'NONE', #158, #157 ) ;
#160 = CARTESIAN_POINT ( 'NONE',  ( -3.500350514758588700, 1.358932922870714100, -0.1277469324962494400 ) ) ;
#161 = DIRECTION ( 'NONE',  ( 0.0000000000000000000, 0.0000000000000000000, -1.000000000000000000 ) ) ;
#162 = DIRECTION ( 'NONE',  ( 1.000000000000000000, 0.0000000000000000000, 0.0000000000000000000 ) ) ;
#163 = AXIS2_PLACEMENT_3D ( 'NONE', #170, #162, #161 ) ;
#164 = CIRCLE ( 'NONE', #163, 1.000000000000003100 ) ;
#165 = DIRECTION ( 'NONE',  ( 0.0000000000000000000, 0.0000000000000000000, -1.000000000000000000 ) ) ;
#166 = DIRECTION ( 'NONE',  ( 1.000000000000000000, 0.0000000000000000000, 0.0000000000000000000 ) ) ;
#167 = CARTESIAN_POINT ( 'NONE',  ( -3.328916529300524300, 1.358932922870714100, 0.8722530675037537500 ) ) ;
#168 = AXIS2_PLACEMENT_3D ( 'NONE', #167, #166, #165 ) ;
#169 = CYLINDRICAL_SURFACE ( 'NONE', #168, 1.000000000000001600 ) ;
#170 = CARTESIAN_POINT ( 'NONE',  ( -3.500350514758588700, 1.358932922870714100, 0.8722530675037537500 ) ) ;
#171 = UNCERTAINTY_MEASURE_WITH_UNIT (LENGTH_MEASURE( 1.000000000000000100E-005 ), #174, 'distance_accuracy_value', 'NONE');
#172 =( NAMED_UNIT ( * ) SI_UNIT ( $, .STERADIAN. ) SOLID_ANGLE_UNIT ( ) );
#173 =( NAMED_UNIT ( * ) PLANE_ANGLE_UNIT ( ) SI_UNIT ( $, .RADIAN. ) );
#174 =( CONVERSION_BASED_UNIT ( 'INCH', #175 ) LENGTH_UNIT ( ) NAMED_UNIT ( #176 ) );
#175 = LENGTH_MEASURE_WITH_UNIT ( LENGTH_MEASURE( 0.02539999999999999900 ), #177 );
#176 = DIMENSIONAL_EXPONENTS ( 1.000000000000000000, 0.0000000000000000000, 0.0000000000000000000, 0.0000000000000000000, 0.0000000000000000000, 0.0000000000000000000, 0.0000000000000000000 ) ;
#177 =( LENGTH_UNIT ( ) NAMED_UNIT ( * ) SI_UNIT ( $, .METRE. ) );
#178 = MECHANICAL_DESIGN_GEOMETRIC_PRESENTATION_REPRESENTATION (  '', ( #180 ), #226 ) ;
#179 = PRESENTATION_LAYER_ASSIGNMENT (  '', '', ( #180 ) ) ;
#180 = STYLED_ITEM ( 'NONE', ( #181 ), #32 ) ;
#181 = PRESENTATION_STYLE_ASSIGNMENT (( #182 ) ) ;
#182 = SURFACE_STYLE_USAGE ( .BOTH. , #183 ) ;
#183 = SURFACE_SIDE_STYLE ('',( #184 ) ) ;
#184 = SURFACE_STYLE_FILL_AREA ( #185 ) ;
#185 = FILL_AREA_STYLE ('',( #186 ) ) ;
#186 = FILL_AREA_STYLE_COLOUR ( '', #187 ) ;
#187 = COLOUR_RGB ( '',0.7529411764705882200, 0.7529411764705882200, 0.7529411764705882200 ) ;
#188 = FACE_OUTER_BOUND ( 'NONE', #33, .T. ) ;
#189 =( GEOMETRIC_REPRESENTATION_CONTEXT ( 3 ) GLOBAL_UNCERTAINTY_ASSIGNED_CONTEXT ( ( #190 ) ) GLOBAL_UNIT_ASSIGNED_CONTEXT ( ( #136, #192, #191 ) ) REPRESENTATION_CONTEXT ( 'NONE', 'WORKASPACE' ) );
#190 = UNCERTAINTY_MEASURE_WITH_UNIT (LENGTH_MEASURE( 1.000000000000000100E-005 ), #136, 'distance_accuracy_value', 'NONE');
#191 =( NAMED_UNIT ( * ) SI_UNIT ( $, .STERADIAN. ) SOLID_ANGLE_UNIT ( ) );
#192 =( NAMED_UNIT ( * ) PLANE_ANGLE_UNIT ( ) SI_UNIT ( $, .RADIAN. ) );
#193 =( CONVERSION_BASED_UNIT ( 'INCH', #194 ) LENGTH_UNIT ( ) NAMED_UNIT ( #195 ) );
#194 = LENGTH_MEASURE_WITH_UNIT ( LENGTH_MEASURE( 0.02539999999999999900 ), #196 );
#195 = DIMENSIONAL_EXPONENTS ( 1.000000000000000000, 0.0000000000000000000, 0.0000000000000000000, 0.0000000000000000000, 0.0000000000000000000, 0.0000000000000000000, 0.0000000000000000000 ) ;
#196 =( LENGTH_UNIT ( ) NAMED_UNIT ( * ) SI_UNIT ( $, .METRE. ) );
#197 = MECHANICAL_DESIGN_GEOMETRIC_PRESENTATION_REPRESENTATION (  '', ( #199 ), #250 ) ;
#198 = PRESENTATION_LAYER_ASSIGNMENT (  '', '', ( #199 ) ) ;
#199 = STYLED_ITEM ( 'NONE', ( #200 ), #54 ) ;
#200 = PRESENTATION_STYLE_ASSIGNMENT (( #201 ) ) ;
#201 = SURFACE_STYLE_USAGE ( .BOTH. , #202 ) ;
#202 = SURFACE_SIDE_STYLE ('',( #203 ) ) ;
#203 = SURFACE_STYLE_FILL_AREA ( #204 ) ;
#204 = FILL_AREA_STYLE ('',( #205 ) ) ;
#205 = FILL_AREA_STYLE_COLOUR ( '', #206 ) ;
#206 = COLOUR_RGB ( '',0.7529411764705882200, 0.7529411764705882200, 0.7529411764705882200 ) ;
#207 = DIRECTION ( 'NONE',  ( 0.0000000000000000000, 0.0000000000000000000, -1.000000000000000000 ) ) ;
#208 = DIRECTION ( 'NONE',  ( 1.000000000000000000, 0.0000000000000000000, 0.0000000000000000000 ) ) ;
#209 = CARTESIAN_POINT ( 'NONE',  ( -3.500350514758588700, 1.358932922870714100, 0.8722530675037537500 ) ) ;
#210 = AXIS2_PLACEMENT_3D ( 'NONE', #209, #208, #207 ) ;
#211 = CIRCLE ( 'NONE', #210, 1.000000000000003100 ) ;
#212 = FACE_OUTER_BOUND ( 'NONE', #55, .T. ) ;
#213 = CARTESIAN_POINT ( 'NONE',  ( -3.500350514758588700, 0.3589329228707050000, 0.8722530675037538600 ) ) ;
#214 = CARTESIAN_POINT ( 'NONE',  ( -3.500350514758588700, 2.358932922870723200, 0.8722530675037537500 ) ) ;
#215 = CARTESIAN_POINT ( 'NONE',  ( -3.525766923001311800, 1.358932922870715200, 0.8722530675037537500 ) ) ;
#216 = DIRECTION ( 'NONE',  ( -1.000000000000000000, 0.0000000000000000000, 0.0000000000000000000 ) ) ;
#217 = DIRECTION ( 'NONE',  ( 0.0000000000000000000, 0.0000000000000000000, -1.000000000000000000 ) ) ;
#218 = CARTESIAN_POINT ( 'NONE',  ( 16.15927244707742700, 1.358932922870714100, 0.8722530675037537500 ) ) ;
#219 = AXIS2_PLACEMENT_3D ( 'NONE', #218, #217, #216 ) ;
#220 = CIRCLE ( 'NONE', #219, 19.68503937007873700 ) ;
#221 = DIRECTION ( 'NONE',  ( 0.0000000000000000000, 1.000000000000000000, 0.0000000000000000000 ) ) ;
#222 = DIRECTION ( 'NONE',  ( 0.0000000000000000000, 0.0000000000000000000, 1.000000000000000000 ) ) ;
#223 = AXIS2_PLACEMENT_3D ( 'NONE', #225, #222, #221 ) ;
#224 = SPHERICAL_SURFACE ( 'NONE', #223, 19.68503937007873700 ) ;
#225 = CARTESIAN_POINT ( 'NONE',  ( 16.15927244707742700, 1.358932922870714100, 0.8722530675037537500 ) ) ;
#226 =( GEOMETRIC_REPRESENTATION_CONTEXT ( 3 ) GLOBAL_UNCERTAINTY_ASSIGNED_CONTEXT ( ( #171 ) ) GLOBAL_UNIT_ASSIGNED_CONTEXT ( ( #174, #173, #172 ) ) REPRESENTATION_CONTEXT ( 'NONE', 'WORKASPACE' ) );
#227 = DIMENSIONAL_EXPONENTS ( 1.000000000000000000, 0.0000000000000000000, 0.0000000000000000000, 0.0000000000000000000, 0.0000000000000000000, 0.0000000000000000000, 0.0000000000000000000 ) ;
#228 =( LENGTH_UNIT ( ) NAMED_UNIT ( * ) SI_UNIT ( $, .METRE. ) );
#229 = MECHANICAL_DESIGN_GEOMETRIC_PRESENTATION_REPRESENTATION (  '', ( #231 ), #276 ) ;
#230 = PRESENTATION_LAYER_ASSIGNMENT (  '', '', ( #231 ) ) ;
#231 = STYLED_ITEM ( 'NONE', ( #232 ), #62 ) ;
#232 = PRESENTATION_STYLE_ASSIGNMENT (( #233 ) ) ;
#233 = SURFACE_STYLE_USAGE ( .BOTH. , #234 ) ;
#234 = SURFACE_SIDE_STYLE ('',( #235 ) ) ;
#235 = SURFACE_STYLE_FILL_AREA ( #236 ) ;
#236 = FILL_AREA_STYLE ('',( #244 ) ) ;
#237 = COLOUR_RGB ( '',0.7529411764705882200, 0.7529411764705882200, 0.7529411764705882200 ) ;
#238 = FACE_OUTER_BOUND ( 'NONE', #63, .T. ) ;
#239 = DIRECTION ( 'NONE',  ( 0.0000000000000000000, 0.0000000000000000000, -1.000000000000000000 ) ) ;
#240 = DIRECTION ( 'NONE',  ( 1.000000000000000000, 0.0000000000000000000, 0.0000000000000000000 ) ) ;
#241 = CARTESIAN_POINT ( 'NONE',  ( -3.278571771086084200, 1.358932922870714100, 0.8722530675037537500 ) ) ;
#242 = AXIS2_PLACEMENT_3D ( 'NONE', #241, #240, #239 ) ;
#243 = CIRCLE ( 'NONE', #242, 1.000000000000000000 ) ;
#244 = FILL_AREA_STYLE_COLOUR ( '', #237 ) ;
#245 = DIRECTION ( 'NONE',  ( 0.0000000000000000000, 1.000000000000000000, 0.0000000000000000000 ) ) ;
#246 = DIRECTION ( 'NONE',  ( 0.0000000000000000000, 0.0000000000000000000, 1.000000000000000000 ) ) ;
#247 = AXIS2_PLACEMENT_3D ( 'NONE', #249, #246, #245 ) ;
#248 = SPHERICAL_SURFACE ( 'NONE', #247, 19.68503937007873700 ) ;
#249 = CARTESIAN_POINT ( 'NONE',  ( 16.15927244707742700, 1.358932922870714100, 0.8722530675037537500 ) ) ;
#250 =( GEOMETRIC_REPRESENTATION_CONTEXT ( 3 ) GLOBAL_UNCERTAINTY_ASSIGNED_CONTEXT ( ( #251 ) ) GLOBAL_UNIT_ASSIGNED_CONTEXT ( ( #193, #253, #252 ) ) REPRESENTATION_CONTEXT ( 'NONE', 'WORKASPACE' ) );
#251 = UNCERTAINTY_MEASURE_WITH_UNIT (LENGTH_MEASURE( 1.000000000000000100E-005 ), #193, 'distance_accuracy_value', 'NONE');
#252 =( NAMED_UNIT ( * ) SI_UNIT ( $, .STERADIAN. ) SOLID_ANGLE_UNIT ( ) );
#253 =( NAMED_UNIT ( * ) PLANE_ANGLE_UNIT ( ) SI_UNIT ( $, .RADIAN. ) );
#254 =( LENGTH_UNIT ( ) NAMED_UNIT ( * ) SI_UNIT ( $, .METRE. ) );
#255 = MECHANICAL_DESIGN_GEOMETRIC_PRESENTATION_REPRESENTATION (  '', ( #257 ), #295 ) ;
#256 = PRESENTATION_LAYER_ASSIGNMENT (  '', '', ( #257 ) ) ;
#257 = STYLED_ITEM ( 'NONE', ( #258 ), #69 ) ;
#258 = PRESENTATION_STYLE_ASSIGNMENT (( #259 ) ) ;
#259 = SURFACE_STYLE_USAGE ( .BOTH. , #260 ) ;
#260 = SURFACE_SIDE_STYLE ('',( #261 ) ) ;
#261 = SURFACE_STYLE_FILL_AREA ( #262 ) ;
#262 = FILL_AREA_STYLE ('',( #270 ) ) ;
#263 = COLOUR_RGB ( '',0.7529411764705882200, 0.7529411764705882200, 0.7529411764705882200 ) ;
#264 = FACE_OUTER_BOUND ( 'NONE', #70, .T. ) ;
#265 = DIRECTION ( 'NONE',  ( 0.0000000000000000000, 0.0000000000000000000, -1.000000000000000000 ) ) ;
#266 = DIRECTION ( 'NONE',  ( 1.000000000000000000, 0.0000000000000000000, 0.0000000000000000000 ) ) ;
#267 = CARTESIAN_POINT ( 'NONE',  ( -3.278571771086084200, 1.358932922870714100, 0.8722530675037537500 ) ) ;
#268 = AXIS2_PLACEMENT_3D ( 'NONE', #267, #266, #265 ) ;
#269 = CIRCLE ( 'NONE', #268, 1.000000000000000000 ) ;
#270 = FILL_AREA_STYLE_COLOUR ( '', #263 ) ;
#271 = DIRECTION ( 'NONE',  ( 0.0000000000000000000, 1.000000000000000000, 0.0000000000000000000 ) ) ;
#272 = DIRECTION ( 'NONE',  ( 0.0000000000000000000, 0.0000000000000000000, 1.000000000000000000 ) ) ;
#273 = AXIS2_PLACEMENT_3D ( 'NONE', #275, #272, #271 ) ;
#274 = SPHERICAL_SURFACE ( 'NONE', #273, 9.956692913385827700 ) ;
#275 = CARTESIAN_POINT ( 'NONE',  ( 6.627776384085303900, 1.358932922870714100, 0.8722530675037537500 ) ) ;
#276 =( GEOMETRIC_REPRESENTATION_CONTEXT ( 3 ) GLOBAL_UNCERTAINTY_ASSIGNED_CONTEXT ( ( #277 ) ) GLOBAL_UNIT_ASSIGNED_CONTEXT ( ( #280, #279, #278 ) ) REPRESENTATION_CONTEXT ( 'NONE', 'WORKASPACE' ) );
#277 = UNCERTAINTY_MEASURE_WITH_UNIT (LENGTH_MEASURE( 1.000000000000000100E-005 ), #280, 'distance_accuracy_value', 'NONE');
#278 =( NAMED_UNIT ( * ) SI_UNIT ( $, .STERADIAN. ) SOLID_ANGLE_UNIT ( ) );
#279 =( NAMED_UNIT ( * ) PLANE_ANGLE_UNIT ( ) SI_UNIT ( $, .RADIAN. ) );
#280 =( CONVERSION_BASED_UNIT ( 'INCH', #281 ) LENGTH_UNIT ( ) NAMED_UNIT ( #227 ) );
#281 = LENGTH_MEASURE_WITH_UNIT ( LENGTH_MEASURE( 0.02539999999999999900 ), #228 );
#282 = CARTESIAN_POINT ( 'NONE',  ( -3.278571771086084200, 1.358932922870714100, 0.8722530675037537500 ) ) ;
#283 = CIRCLE ( 'NONE', #318, 1.000000000000000000 ) ;
#284 = CARTESIAN_POINT ( 'NONE',  ( -3.278571771086084700, 2.358932922870711700, 0.8722530675037537500 ) ) ;
#285 = DIRECTION ( 'NONE',  ( 0.0000000000000000000, 0.0000000000000000000, -1.000000000000000000 ) ) ;
#286 = DIRECTION ( 'NONE',  ( 1.000000000000000000, 0.0000000000000000000, 0.0000000000000000000 ) ) ;
#287 = AXIS2_PLACEMENT_3D ( 'NONE', #293, #286, #285 ) ;
#288 = CIRCLE ( 'NONE', #287, 1.000000000000000000 ) ;
#289 = DIRECTION ( 'NONE',  ( 0.0000000000000000000, 0.0000000000000000000, -1.000000000000000000 ) ) ;
#290 = DIRECTION ( 'NONE',  ( 1.000000000000000000, 0.0000000000000000000, 0.0000000000000000000 ) ) ;
#291 = AXIS2_PLACEMENT_3D ( 'NONE', #294, #290, #289 ) ;
#292 = CYLINDRICAL_SURFACE ( 'NONE', #291, 1.000000000000001600 ) ;
#293 = CARTESIAN_POINT ( 'NONE',  ( -3.278571771086084200, 1.358932922870714100, 0.8722530675037537500 ) ) ;
#294 = CARTESIAN_POINT ( 'NONE',  ( -3.328916529300524300, 1.358932922870714100, 0.8722530675037537500 ) ) ;
#295 =( GEOMETRIC_REPRESENTATION_CONTEXT ( 3 ) GLOBAL_UNCERTAINTY_ASSIGNED_CONTEXT ( ( #296 ) ) GLOBAL_UNIT_ASSIGNED_CONTEXT ( ( #299, #298, #297 ) ) REPRESENTATION_CONTEXT ( 'NONE', 'WORKASPACE' ) );
#296 = UNCERTAINTY_MEASURE_WITH_UNIT (LENGTH_MEASURE( 1.000000000000000100E-005 ), #299, 'distance_accuracy_value', 'NONE');
#297 =( NAMED_UNIT ( * ) SI_UNIT ( $, .STERADIAN. ) SOLID_ANGLE_UNIT ( ) );
#298 =( NAMED_UNIT ( * ) PLANE_ANGLE_UNIT ( ) SI_UNIT ( $, .RADIAN. ) );
#299 =( CONVERSION_BASED_UNIT ( 'INCH', #300 ) LENGTH_UNIT ( ) NAMED_UNIT ( #301 ) );
#300 = LENGTH_MEASURE_WITH_UNIT ( LENGTH_MEASURE( 0.02539999999999999900 ), #254 );
#301 = DIMENSIONAL_EXPONENTS ( 1.000000000000000000, 0.0000000000000000000, 0.0000000000000000000, 0.0000000000000000000, 0.0000000000000000000, 0.0000000000000000000, 0.0000000000000000000 ) ;
#302 = ADVANCED_BREP_SHAPE_REPRESENTATION ( '4886-E0W', ( #31, #331 ), #303 ) ;
#303 =( GEOMETRIC_REPRESENTATION_CONTEXT ( 3 ) GLOBAL_UNCERTAINTY_ASSIGNED_CONTEXT ( ( #304 ) ) GLOBAL_UNIT_ASSIGNED_CONTEXT ( ( #307, #306, #305 ) ) REPRESENTATION_CONTEXT ( 'NONE', 'WORKASPACE' ) );
#304 = UNCERTAINTY_MEASURE_WITH_UNIT (LENGTH_MEASURE( 1.000000000000000100E-005 ), #307, 'distance_accuracy_value', 'NONE');
#305 =( NAMED_UNIT ( * ) SI_UNIT ( $, .STERADIAN. ) SOLID_ANGLE_UNIT ( ) );
#306 =( NAMED_UNIT ( * ) PLANE_ANGLE_UNIT ( ) SI_UNIT ( $, .RADIAN. ) );
#307 =( CONVERSION_BASED_UNIT ( 'INCH', #308 ) LENGTH_UNIT ( ) NAMED_UNIT ( #309 ) );
#308 = LENGTH_MEASURE_WITH_UNIT ( LENGTH_MEASURE( 0.02539999999999999900 ), #310 );
#309 = DIMENSIONAL_EXPONENTS ( 1.000000000000000000, 0.0000000000000000000, 0.0000000000000000000, 0.0000000000000000000, 0.0000000000000000000, 0.0000000000000000000, 0.0000000000000000000 ) ;
#310 =( LENGTH_UNIT ( ) NAMED_UNIT ( * ) SI_UNIT ( $, .METRE. ) );
#311 = DIRECTION ( 'NONE',  ( 1.000000000000000000, 0.0000000000000000000, 0.0000000000000000000 ) ) ;
#312 = VECTOR ( 'NONE', #311, 39.37007874015748100 ) ;
#313 = CARTESIAN_POINT ( 'NONE',  ( -3.328916529300524300, 1.358932922870714100, -0.1277469324962479100 ) ) ;
#314 = LINE ( 'NONE', #313, #312 ) ;
#315 = CARTESIAN_POINT ( 'NONE',  ( -3.278571771086084200, 1.358932922870714100, -0.1277469324962462700 ) ) ;
#316 = DIRECTION ( 'NONE',  ( 0.0000000000000000000, 0.0000000000000000000, -1.000000000000000000 ) ) ;
#317 = DIRECTION ( 'NONE',  ( 1.000000000000000000, 0.0000000000000000000, 0.0000000000000000000 ) ) ;
#318 = AXIS2_PLACEMENT_3D ( 'NONE', #282, #317, #316 ) ;
#319 = PRODUCT_DEFINITION_FORMATION_WITH_SPECIFIED_SOURCE ( 'ANY', '', #324, .NOT_KNOWN. ) ;
#320 = PRODUCT_DEFINITION ( 'UNKNOWN', '', #319, #321 ) ;
#321 = PRODUCT_DEFINITION_CONTEXT ( 'detailed design', #323, 'design' ) ;
#322 = APPLICATION_PROTOCOL_DEFINITION ( 'draft international standard', 'automotive_design', 1998, #323 ) ;
#323 = APPLICATION_CONTEXT ( 'automotive_design' ) ;
#324 = PRODUCT ( '4886-E0W', '4886-E0W', '', ( #325 ) ) ;
#325 = PRODUCT_CONTEXT ( 'NONE', #327, 'mechanical' ) ;
#326 = APPLICATION_PROTOCOL_DEFINITION ( 'draft international standard', 'automotive_design', 1998, #327 ) ;
#327 = APPLICATION_CONTEXT ( 'automotive_design' ) ;
#328 = DIRECTION ( 'NONE',  ( 1.000000000000000000, 0.0000000000000000000, 0.0000000000000000000 ) ) ;
#329 = DIRECTION ( 'NONE',  ( 0.0000000000000000000, 0.0000000000000000000, 1.000000000000000000 ) ) ;
#330 = CARTESIAN_POINT ( 'NONE',  ( 0.0000000000000000000, 0.0000000000000000000, 0.0000000000000000000 ) ) ;
#331 = AXIS2_PLACEMENT_3D ( 'NONE', #330, #329, #328 ) ;
ENDSEC;
END-ISO-10303-21;
