ISO-10303-21;
HEADER;
FILE_DESCRIPTION (( 'STEP AP203' ),
    '1' );
FILE_NAME ('TTN162816-E0W.STEP',
    '2019-10-24T14:18:59',
    ( '' ),
    ( '' ),
    'SwSTEP 2.0',
    'SolidWorks 2018',
    '' );
FILE_SCHEMA (( 'CONFIG_CONTROL_DESIGN' ));
ENDSEC;

DATA;
#1 = CARTESIAN_POINT ( 'NONE',  ( 1.873069370657954424, 0.002317377489010480351, 2.319056284064748841 ) ) ;
#2 = DIRECTION ( 'NONE',  ( -1.000000000000000000, 0.0000000000000000000, 0.0000000000000000000 ) ) ;
#3 = DIRECTION ( 'NONE',  ( 1.000000000000000000, 0.0000000000000000000, 0.0000000000000000000 ) ) ;
#4 = CIRCLE ( 'NONE', #60, 1.499999999999999556 ) ;
#5 = ORIENTED_EDGE ( 'NONE', *, *, #294, .T. ) ;
#6 = PERSON_AND_ORGANIZATION ( #281, #37 ) ;
#7 = CARTESIAN_POINT ( 'NONE',  ( 1.873069370657954646, 1.452317377489011019, 2.732215185957352244 ) ) ;
#8 = CARTESIAN_POINT ( 'NONE',  ( 1.873069370657954646, 1.452317377489011019, 1.282215185957353398 ) ) ;
#9 = APPROVAL ( #114, 'UNSPECIFIED' ) ;
#10 = CARTESIAN_POINT ( 'NONE',  ( 0.3730693706579545910, 1.452317377489011241, 1.282215185957353398 ) ) ;
#11 = DIRECTION ( 'NONE',  ( -0.0000000000000000000, -0.0000000000000000000, 1.000000000000000000 ) ) ;
#12 = AXIS2_PLACEMENT_3D ( 'NONE', #241, #126, #3 ) ;
#13 = CARTESIAN_POINT ( 'NONE',  ( 3.373069370657954646, 1.452317377489011019, 1.282215185957353398 ) ) ;
#14 = APPROVAL_ROLE ( '' ) ;
#15 = VECTOR ( 'NONE', #215, 1000.000000000000114 ) ;
#16 = ORIENTED_EDGE ( 'NONE', *, *, #320, .T. ) ;
#17 = CC_DESIGN_PERSON_AND_ORGANIZATION_ASSIGNMENT ( #147, #197, ( #94 ) ) ;
#18 = APPROVAL_STATUS ( 'not_yet_approved' ) ;
#19 = AXIS2_PLACEMENT_3D ( 'NONE', #8, #11, #34 ) ;
#20 = LOCAL_TIME ( 10, 18, 59.00000000000000000, #169 ) ;
#21 = CYLINDRICAL_SURFACE ( 'NONE', #67, 1.500000000000000000 ) ;
#22 = AXIS2_PLACEMENT_3D ( 'NONE', #300, #51, #298 ) ;
#23 = ADVANCED_BREP_SHAPE_REPRESENTATION ( 'TTN162816-E0W', ( #166, #115 ), #187 ) ;
#24 = PLANE ( 'NONE',  #84 ) ;
#25 = DIRECTION ( 'NONE',  ( 1.000000000000000000, 0.0000000000000000000, 0.0000000000000000000 ) ) ;
#26 = DIRECTION ( 'NONE',  ( 1.000000000000000000, 0.0000000000000000000, 0.0000000000000000000 ) ) ;
#27 = CIRCLE ( 'NONE', #12, 1.500000000000000000 ) ;
#28 = ORIENTED_EDGE ( 'NONE', *, *, #173, .F. ) ;
#29 = DIRECTION ( 'NONE',  ( 0.0000000000000000000, 0.0000000000000000000, -1.000000000000000000 ) ) ;
#30 = COORDINATED_UNIVERSAL_TIME_OFFSET ( 5, 0, .BEHIND. ) ;
#31 = DIRECTION ( 'NONE',  ( -0.0000000000000000000, -0.0000000000000000000, 1.000000000000000000 ) ) ;
#32 = DIRECTION ( 'NONE',  ( 0.7071067811865460184, 8.659560562354913137E-17, -0.7071067811865489050 ) ) ;
#33 = DIRECTION ( 'NONE',  ( -0.0000000000000000000, -0.0000000000000000000, 1.000000000000000000 ) ) ;
#34 = DIRECTION ( 'NONE',  ( 1.000000000000000000, 0.0000000000000000000, 0.0000000000000000000 ) ) ;
#35 = CLOSED_SHELL ( 'NONE', ( #214, #56, #270, #38, #180, #103, #184, #248, #207 ) ) ;
#36 = CC_DESIGN_PERSON_AND_ORGANIZATION_ASSIGNMENT ( #6, #142, ( #192 ) ) ;
#37 = ORGANIZATION ( 'UNSPECIFIED', 'UNSPECIFIED', '' ) ;
#38 = ADVANCED_FACE ( 'NONE', ( #199 ), #21, .T. ) ;
#39 = CC_DESIGN_PERSON_AND_ORGANIZATION_ASSIGNMENT ( #220, #219, ( #94 ) ) ;
#40 = LINE ( 'NONE', #156, #95 ) ;
#41 = EDGE_CURVE ( 'NONE', #96, #317, #218, .T. ) ;
#42 = APPROVAL_PERSON_ORGANIZATION ( #70, #107, #14 ) ;
#43 = MECHANICAL_CONTEXT ( 'NONE', #138, 'mechanical' ) ;
#44 = SECURITY_CLASSIFICATION_LEVEL ( 'unclassified' ) ;
#45 = APPROVAL_DATE_TIME ( #172, #144 ) ;
#46 = CONICAL_SURFACE ( 'NONE', #170, 1.499999999999999778, 0.7853981633974461696 ) ;
#47 = ORIENTED_EDGE ( 'NONE', *, *, #306, .T. ) ;
#48 = DIRECTION ( 'NONE',  ( -0.0000000000000000000, -0.0000000000000000000, 1.000000000000000000 ) ) ;
#49 = CONICAL_SURFACE ( 'NONE', #22, 1.500000000000000000, 0.7853981633974375098 ) ;
#50 = CARTESIAN_POINT ( 'NONE',  ( 3.373069370657954646, 1.452317377489011019, 1.282215185957353398 ) ) ;
#51 = DIRECTION ( 'NONE',  ( -0.0000000000000000000, -0.0000000000000000000, 1.000000000000000000 ) ) ;
#52 = EDGE_CURVE ( 'NONE', #204, #141, #85, .T. ) ;
#53 = ORIENTED_EDGE ( 'NONE', *, *, #200, .T. ) ;
#54 = CARTESIAN_POINT ( 'NONE',  ( 0.3730693706579545910, 1.452317377489011241, 2.732215185957352244 ) ) ;
#55 = APPROVAL_PERSON_ORGANIZATION ( #131, #144, #260 ) ;
#56 = ADVANCED_FACE ( 'NONE', ( #224 ), #278, .T. ) ;
#57 = CARTESIAN_POINT ( 'NONE',  ( 1.873069370657954646, 1.452317377489011019, -0.01878481404264772947 ) ) ;
#58 = DIRECTION ( 'NONE',  ( -0.0000000000000000000, -0.0000000000000000000, 1.000000000000000000 ) ) ;
#59 = VERTEX_POINT ( 'NONE', #50 ) ;
#60 = AXIS2_PLACEMENT_3D ( 'NONE', #86, #88, #135 ) ;
#61 =( NAMED_UNIT ( * ) PLANE_ANGLE_UNIT ( ) SI_UNIT ( $, .RADIAN. ) );
#62 = FACE_OUTER_BOUND ( 'NONE', #301, .T. ) ;
#63 = ORIENTED_EDGE ( 'NONE', *, *, #119, .F. ) ;
#64 = SECURITY_CLASSIFICATION ( '', '', #44 ) ;
#65 = CALENDAR_DATE ( 2019, 24, 10 ) ;
#66 = DIRECTION ( 'NONE',  ( 1.000000000000000000, 0.0000000000000000000, 0.0000000000000000000 ) ) ;
#67 = AXIS2_PLACEMENT_3D ( 'NONE', #7, #48, #76 ) ;
#68 = FACE_OUTER_BOUND ( 'NONE', #136, .T. ) ;
#69 = ORIENTED_EDGE ( 'NONE', *, *, #291, .F. ) ;
#70 = PERSON_AND_ORGANIZATION ( #281, #37 ) ;
#71 = CC_DESIGN_APPROVAL ( #144, ( #125 ) ) ;
#72 = ORIENTED_EDGE ( 'NONE', *, *, #41, .T. ) ;
#73 = DIRECTION ( 'NONE',  ( 1.000000000000000000, 0.0000000000000000000, 0.0000000000000000000 ) ) ;
#74 = AXIS2_PLACEMENT_3D ( 'NONE', #87, #254, #137 ) ;
#75 = CARTESIAN_POINT ( 'NONE',  ( 1.873069370657954646, 1.452317377489011019, 2.269056284064749462 ) ) ;
#76 = DIRECTION ( 'NONE',  ( 1.000000000000000000, 0.0000000000000000000, 0.0000000000000000000 ) ) ;
#77 = DIRECTION ( 'NONE',  ( -0.7071067811865398012, 8.659560562354836716E-17, 0.7071067811865551223 ) ) ;
#78 = FACE_OUTER_BOUND ( 'NONE', #195, .T. ) ;
#79 = CARTESIAN_POINT ( 'NONE',  ( 1.873069370657954646, 1.452317377489011019, 1.232215185957352244 ) ) ;
#80 = LOCAL_TIME ( 10, 18, 59.00000000000000000, #191 ) ;
#81 = DIRECTION ( 'NONE',  ( 0.0000000000000000000, 1.000000000000000000, 0.0000000000000000000 ) ) ;
#82 = CARTESIAN_POINT ( 'NONE',  ( 1.873069370657954646, 2.902317377489011641, 2.319056284064748841 ) ) ;
#83 = CC_DESIGN_SECURITY_CLASSIFICATION ( #64, ( #94 ) ) ;
#84 = AXIS2_PLACEMENT_3D ( 'NONE', #79, #104, #73 ) ;
#85 = CIRCLE ( 'NONE', #262, 1.499999999999999556 ) ;
#86 = CARTESIAN_POINT ( 'NONE',  ( 1.873069370657954646, 1.452317377489011019, 2.269056284064749462 ) ) ;
#87 = CARTESIAN_POINT ( 'NONE',  ( 1.873069370657954646, 1.452317377489011019, -0.01878481404264772947 ) ) ;
#88 = DIRECTION ( 'NONE',  ( -0.0000000000000000000, -0.0000000000000000000, 1.000000000000000000 ) ) ;
#89 = SPHERICAL_SURFACE ( 'NONE', #303, 2.750999999999999890 ) ;
#90 = EDGE_LOOP ( 'NONE', ( #312, #185, #47, #148, #163 ) ) ;
#91 = APPROVAL_PERSON_ORGANIZATION ( #178, #9, #287 ) ;
#92 = EDGE_LOOP ( 'NONE', ( #117, #265, #231, #249 ) ) ;
#93 = PERSON_AND_ORGANIZATION_ROLE ( 'creator' ) ;
#94 = PRODUCT_DEFINITION_FORMATION_WITH_SPECIFIED_SOURCE ( 'ANY', '', #192, .NOT_KNOWN. ) ;
#95 = VECTOR ( 'NONE', #161, 1000.000000000000114 ) ;
#96 = VERTEX_POINT ( 'NONE', #1 ) ;
#97 = LOCAL_TIME ( 10, 18, 59.00000000000000000, #30 ) ;
#98 = EDGE_LOOP ( 'NONE', ( #120, #314, #309, #143 ) ) ;
#99 = AXIS2_PLACEMENT_3D ( 'NONE', #159, #211, #279 ) ;
#100 = CARTESIAN_POINT ( 'NONE',  ( 3.373069370657954202, 1.452317377489011241, 2.269056284064749462 ) ) ;
#101 = CIRCLE ( 'NONE', #19, 1.500000000000000000 ) ;
#102 = CARTESIAN_POINT ( 'NONE',  ( 0.3730693706579548130, 1.452317377489011241, 2.269056284064749462 ) ) ;
#103 = ADVANCED_FACE ( 'NONE', ( #258 ), #233, .T. ) ;
#104 = DIRECTION ( 'NONE',  ( 0.0000000000000000000, -0.0000000000000000000, 1.000000000000000000 ) ) ;
#105 = CARTESIAN_POINT ( 'NONE',  ( 1.873069370657954646, 1.452317377489011019, 2.319056284064748841 ) ) ;
#106 = ORIENTED_EDGE ( 'NONE', *, *, #127, .F. ) ;
#107 = APPROVAL ( #18, 'UNSPECIFIED' ) ;
#108 = DIRECTION ( 'NONE',  ( -0.0000000000000000000, -0.0000000000000000000, 1.000000000000000000 ) ) ;
#109 = FACE_OUTER_BOUND ( 'NONE', #295, .T. ) ;
#110 = LOCAL_TIME ( 10, 18, 59.00000000000000000, #202 ) ;
#111 = APPLICATION_PROTOCOL_DEFINITION ( 'international standard', 'config_control_design', 1994, #285 ) ;
#112 = ORIENTED_EDGE ( 'NONE', *, *, #266, .T. ) ;
#113 = CC_DESIGN_PERSON_AND_ORGANIZATION_ASSIGNMENT ( #315, #167, ( #64 ) ) ;
#114 = APPROVAL_STATUS ( 'not_yet_approved' ) ;
#115 = AXIS2_PLACEMENT_3D ( 'NONE', #190, #183, #66 ) ;
#116 = ORIENTED_EDGE ( 'NONE', *, *, #119, .T. ) ;
#117 = ORIENTED_EDGE ( 'NONE', *, *, #127, .T. ) ;
#118 = PRODUCT_DEFINITION_SHAPE ( 'NONE', 'NONE',  #125 ) ;
#119 = EDGE_CURVE ( 'NONE', #213, #96, #130, .T. ) ;
#120 = ORIENTED_EDGE ( 'NONE', *, *, #247, .F. ) ;
#121 = DATE_AND_TIME ( #319, #80 ) ;
#122 = CC_DESIGN_DATE_AND_TIME_ASSIGNMENT ( #153, #193, ( #64 ) ) ;
#123 = ORIENTED_EDGE ( 'NONE', *, *, #268, .F. ) ;
#124 = CARTESIAN_POINT ( 'NONE',  ( 0.4230693706579547464, 1.452317377489011241, 1.232215185957352244 ) ) ;
#125 = PRODUCT_DEFINITION ( 'UNKNOWN', '', #94, #256 ) ;
#126 = DIRECTION ( 'NONE',  ( -0.0000000000000000000, -0.0000000000000000000, 1.000000000000000000 ) ) ;
#127 = EDGE_CURVE ( 'NONE', #59, #302, #27, .T. ) ;
#128 = DIRECTION ( 'NONE',  ( 1.000000000000000000, 0.0000000000000000000, 0.0000000000000000000 ) ) ;
#129 = CONICAL_SURFACE ( 'NONE', #99, 1.499999999999999778, 0.7853981633974461696 ) ;
#130 = CIRCLE ( 'NONE', #150, 1.450000000000000400 ) ;
#131 = PERSON_AND_ORGANIZATION ( #281, #37 ) ;
#132 = CC_DESIGN_APPROVAL ( #9, ( #64 ) ) ;
#133 = CARTESIAN_POINT ( 'NONE',  ( 1.873069370657954646, 1.452317377489011019, 2.319056284064748841 ) ) ;
#134 = AXIS2_PLACEMENT_3D ( 'NONE', #212, #253, #276 ) ;
#135 = DIRECTION ( 'NONE',  ( 1.000000000000000000, 0.0000000000000000000, 0.0000000000000000000 ) ) ;
#136 = EDGE_LOOP ( 'NONE', ( #28, #311, #63, #5, #273 ) ) ;
#137 = DIRECTION ( 'NONE',  ( 0.0000000000000000000, 0.0000000000000000000, -1.000000000000000000 ) ) ;
#138 = APPLICATION_CONTEXT ( 'configuration controlled 3d designs of mechanical parts and assemblies' ) ;
#139 = DATE_TIME_ROLE ( 'creation_date' ) ;
#140 = LINE ( 'NONE', #54, #145 ) ;
#141 = VERTEX_POINT ( 'NONE', #243 ) ;
#142 = PERSON_AND_ORGANIZATION_ROLE ( 'design_owner' ) ;
#143 = ORIENTED_EDGE ( 'NONE', *, *, #52, .F. ) ;
#144 = APPROVAL ( #283, 'UNSPECIFIED' ) ;
#145 = VECTOR ( 'NONE', #307, 1000.000000000000000 ) ;
#146 = ORIENTED_EDGE ( 'NONE', *, *, #165, .T. ) ;
#147 = PERSON_AND_ORGANIZATION ( #281, #37 ) ;
#148 = ORIENTED_EDGE ( 'NONE', *, *, #294, .F. ) ;
#149 = EDGE_LOOP ( 'NONE', ( #116, #72, #229, #168 ) ) ;
#150 = AXIS2_PLACEMENT_3D ( 'NONE', #267, #177, #226 ) ;
#151 = CARTESIAN_POINT ( 'NONE',  ( 1.873069370657954646, 1.452317377489011019, 2.269056284064749462 ) ) ;
#152 = CIRCLE ( 'NONE', #286, 1.449999999999999956 ) ;
#153 = DATE_AND_TIME ( #284, #20 ) ;
#154 = ORIENTED_EDGE ( 'NONE', *, *, #264, .T. ) ;
#155 = ORIENTED_EDGE ( 'NONE', *, *, #200, .F. ) ;
#156 = CARTESIAN_POINT ( 'NONE',  ( 0.3730693706579548130, 1.452317377489011019, 2.269056284064749462 ) ) ;
#157 = PRODUCT_RELATED_PRODUCT_CATEGORY ( 'detail', '', ( #192 ) ) ;
#158 = DIRECTION ( 'NONE',  ( -1.000000000000000000, 0.0000000000000000000, 0.0000000000000000000 ) ) ;
#159 = CARTESIAN_POINT ( 'NONE',  ( 1.873069370657954646, 1.452317377489011019, 2.269056284064749462 ) ) ;
#160 = AXIS2_PLACEMENT_3D ( 'NONE', #133, #58, #186 ) ;
#161 = DIRECTION ( 'NONE',  ( -0.7071067811865460184, 0.0000000000000000000, -0.7071067811865489050 ) ) ;
#162 = FACE_OUTER_BOUND ( 'NONE', #90, .T. ) ;
#163 = ORIENTED_EDGE ( 'NONE', *, *, #238, .F. ) ;
#164 = DATE_AND_TIME ( #244, #110 ) ;
#165 = EDGE_CURVE ( 'NONE', #189, #289, #152, .T. ) ;
#166 = MANIFOLD_SOLID_BREP ( 'TTN162781-1-solid1', #35 ) ;
#167 = PERSON_AND_ORGANIZATION_ROLE ( 'classification_officer' ) ;
#168 = ORIENTED_EDGE ( 'NONE', *, *, #238, .T. ) ;
#169 = COORDINATED_UNIVERSAL_TIME_OFFSET ( 5, 0, .BEHIND. ) ;
#170 = AXIS2_PLACEMENT_3D ( 'NONE', #151, #205, #2 ) ;
#171 = CIRCLE ( 'NONE', #217, 1.450000000000000400 ) ;
#172 = DATE_AND_TIME ( #239, #196 ) ;
#173 = EDGE_CURVE ( 'NONE', #174, #141, #237, .T. ) ;
#174 = VERTEX_POINT ( 'NONE', #209 ) ;
#175 = VECTOR ( 'NONE', #32, 1000.000000000000114 ) ;
#176 = DIRECTION ( 'NONE',  ( -0.0000000000000000000, -0.0000000000000000000, 1.000000000000000000 ) ) ;
#177 = DIRECTION ( 'NONE',  ( -0.0000000000000000000, -0.0000000000000000000, 1.000000000000000000 ) ) ;
#178 = PERSON_AND_ORGANIZATION ( #281, #37 ) ;
#179 = CARTESIAN_POINT ( 'NONE',  ( 1.873069370657954646, 1.452317377489011019, -0.01878481404264772947 ) ) ;
#180 = ADVANCED_FACE ( 'NONE', ( #282 ), #24, .F. ) ;
#181 = CARTESIAN_POINT ( 'NONE',  ( 0.3730693706579545910, 1.452317377489011241, 1.282215185957353398 ) ) ;
#182 = DIRECTION ( 'NONE',  ( 1.000000000000000000, 0.0000000000000000000, 0.0000000000000000000 ) ) ;
#183 = DIRECTION ( 'NONE',  ( 0.0000000000000000000, 0.0000000000000000000, 1.000000000000000000 ) ) ;
#184 = ADVANCED_FACE ( 'NONE', ( #68 ), #46, .T. ) ;
#185 = ORIENTED_EDGE ( 'NONE', *, *, #173, .T. ) ;
#186 = DIRECTION ( 'NONE',  ( 1.000000000000000000, 0.0000000000000000000, 0.0000000000000000000 ) ) ;
#187 =( GEOMETRIC_REPRESENTATION_CONTEXT ( 3 ) GLOBAL_UNCERTAINTY_ASSIGNED_CONTEXT ( ( #304 ) ) GLOBAL_UNIT_ASSIGNED_CONTEXT ( ( #216, #61, #255 ) ) REPRESENTATION_CONTEXT ( 'NONE', 'WORKASPACE' ) );
#188 = CARTESIAN_POINT ( 'NONE',  ( 1.873069370657954646, 1.452317377489011241, 2.732215185957352244 ) ) ;
#189 = VERTEX_POINT ( 'NONE', #124 ) ;
#190 = CARTESIAN_POINT ( 'NONE',  ( 0.0000000000000000000, 0.0000000000000000000, 0.0000000000000000000 ) ) ;
#191 = COORDINATED_UNIVERSAL_TIME_OFFSET ( 5, 0, .BEHIND. ) ;
#192 = PRODUCT ( 'TTN162816-E0W', 'TTN162816-E0W', '', ( #43 ) ) ;
#193 = DATE_TIME_ROLE ( 'classification_date' ) ;
#194 = AXIS2_PLACEMENT_3D ( 'NONE', #179, #225, #208 ) ;
#195 = EDGE_LOOP ( 'NONE', ( #290, #53, #106, #69 ) ) ;
#196 = LOCAL_TIME ( 10, 18, 59.00000000000000000, #210 ) ;
#197 = PERSON_AND_ORGANIZATION_ROLE ( 'design_supplier' ) ;
#198 = ORIENTED_EDGE ( 'NONE', *, *, #234, .T. ) ;
#199 = FACE_OUTER_BOUND ( 'NONE', #92, .T. ) ;
#200 = EDGE_CURVE ( 'NONE', #189, #302, #297, .T. ) ;
#201 = VECTOR ( 'NONE', #77, 1000.000000000000114 ) ;
#202 = COORDINATED_UNIVERSAL_TIME_OFFSET ( 5, 0, .BEHIND. ) ;
#203 = AXIS2_PLACEMENT_3D ( 'NONE', #251, #232, #277 ) ;
#204 = VERTEX_POINT ( 'NONE', #102 ) ;
#205 = DIRECTION ( 'NONE',  ( 0.0000000000000000000, 0.0000000000000000000, -1.000000000000000000 ) ) ;
#206 = CIRCLE ( 'NONE', #203, 1.450000000000000400 ) ;
#207 = ADVANCED_FACE ( 'NONE', ( #109 ), #49, .T. ) ;
#208 = DIRECTION ( 'NONE',  ( -1.576448087946934872E-16, -1.000000000000000000, 0.0000000000000000000 ) ) ;
#209 = CARTESIAN_POINT ( 'NONE',  ( 3.323069370657954824, 1.452317377489011241, 2.319056284064748841 ) ) ;
#210 = COORDINATED_UNIVERSAL_TIME_OFFSET ( 5, 0, .BEHIND. ) ;
#211 = DIRECTION ( 'NONE',  ( 0.0000000000000000000, 0.0000000000000000000, -1.000000000000000000 ) ) ;
#212 = CARTESIAN_POINT ( 'NONE',  ( 1.873069370657954646, 1.452317377489011019, 1.232215185957352244 ) ) ;
#213 = VERTEX_POINT ( 'NONE', #246 ) ;
#214 = ADVANCED_FACE ( 'NONE', ( #78 ), #292, .T. ) ;
#215 = DIRECTION ( 'NONE',  ( 0.7071067811865398012, 0.0000000000000000000, 0.7071067811865551223 ) ) ;
#216 =( LENGTH_UNIT ( ) NAMED_UNIT ( * ) SI_UNIT ( .MILLI., .METRE. ) );
#217 = AXIS2_PLACEMENT_3D ( 'NONE', #105, #108, #252 ) ;
#218 = CIRCLE ( 'NONE', #194, 2.750999999999999890 ) ;
#219 = PERSON_AND_ORGANIZATION_ROLE ( 'creator' ) ;
#220 = PERSON_AND_ORGANIZATION ( #281, #37 ) ;
#221 = CIRCLE ( 'NONE', #134, 1.449999999999999956 ) ;
#222 = PERSON_AND_ORGANIZATION ( #281, #37 ) ;
#223 = AXIS2_PLACEMENT_3D ( 'NONE', #299, #31, #182 ) ;
#224 = FACE_OUTER_BOUND ( 'NONE', #149, .T. ) ;
#225 = DIRECTION ( 'NONE',  ( -1.000000000000000000, 1.224646799147353207E-16, 0.0000000000000000000 ) ) ;
#226 = DIRECTION ( 'NONE',  ( 1.000000000000000000, 0.0000000000000000000, 0.0000000000000000000 ) ) ;
#227 = CIRCLE ( 'NONE', #160, 1.450000000000000400 ) ;
#228 = CARTESIAN_POINT ( 'NONE',  ( 1.873069370657954646, 1.452317377489011019, 1.232215185957352244 ) ) ;
#229 = ORIENTED_EDGE ( 'NONE', *, *, #320, .F. ) ;
#230 = DIRECTION ( 'NONE',  ( 0.0000000000000000000, 1.000000000000000000, 0.0000000000000000000 ) ) ;
#231 = ORIENTED_EDGE ( 'NONE', *, *, #306, .F. ) ;
#232 = DIRECTION ( 'NONE',  ( -0.0000000000000000000, -0.0000000000000000000, 1.000000000000000000 ) ) ;
#233 = CYLINDRICAL_SURFACE ( 'NONE', #223, 1.500000000000000000 ) ;
#234 = EDGE_CURVE ( 'NONE', #174, #240, #171, .T. ) ;
#235 = ORIENTED_EDGE ( 'NONE', *, *, #41, .F. ) ;
#236 = AXIS2_PLACEMENT_3D ( 'NONE', #245, #269, #81 ) ;
#237 = LINE ( 'NONE', #100, #175 ) ;
#238 = EDGE_CURVE ( 'NONE', #240, #213, #227, .T. ) ;
#239 = CALENDAR_DATE ( 2019, 24, 10 ) ;
#240 = VERTEX_POINT ( 'NONE', #82 ) ;
#241 = CARTESIAN_POINT ( 'NONE',  ( 1.873069370657954646, 1.452317377489011019, 1.282215185957353398 ) ) ;
#242 = ORIENTED_EDGE ( 'NONE', *, *, #291, .T. ) ;
#243 = CARTESIAN_POINT ( 'NONE',  ( 3.373069370657954202, 1.452317377489011019, 2.269056284064749462 ) ) ;
#244 = CALENDAR_DATE ( 2019, 24, 10 ) ;
#245 = CARTESIAN_POINT ( 'NONE',  ( 1.873069370657954646, 1.452317377489011019, -0.01878481404264772947 ) ) ;
#246 = CARTESIAN_POINT ( 'NONE',  ( 0.4230693706579543023, 1.452317377489011019, 2.319056284064748841 ) ) ;
#247 = EDGE_CURVE ( 'NONE', #302, #204, #140, .T. ) ;
#248 = ADVANCED_FACE ( 'NONE', ( #62 ), #89, .T. ) ;
#249 = ORIENTED_EDGE ( 'NONE', *, *, #321, .F. ) ;
#250 = APPROVAL_DATE_TIME ( #259, #107 ) ;
#251 = CARTESIAN_POINT ( 'NONE',  ( 1.873069370657954646, 1.452317377489011019, 2.319056284064748841 ) ) ;
#252 = DIRECTION ( 'NONE',  ( 1.000000000000000000, 0.0000000000000000000, 0.0000000000000000000 ) ) ;
#253 = DIRECTION ( 'NONE',  ( 0.0000000000000000000, 0.0000000000000000000, -1.000000000000000000 ) ) ;
#254 = DIRECTION ( 'NONE',  ( 1.000000000000000000, 0.0000000000000000000, 0.0000000000000000000 ) ) ;
#255 =( NAMED_UNIT ( * ) SI_UNIT ( $, .STERADIAN. ) SOLID_ANGLE_UNIT ( ) );
#256 = DESIGN_CONTEXT ( 'detailed design', #285, 'design' ) ;
#257 = LINE ( 'NONE', #305, #263 ) ;
#258 = FACE_OUTER_BOUND ( 'NONE', #98, .T. ) ;
#259 = DATE_AND_TIME ( #65, #97 ) ;
#260 = APPROVAL_ROLE ( '' ) ;
#261 = EDGE_LOOP ( 'NONE', ( #112, #146 ) ) ;
#262 = AXIS2_PLACEMENT_3D ( 'NONE', #75, #176, #25 ) ;
#263 = VECTOR ( 'NONE', #33, 1000.000000000000000 ) ;
#264 = EDGE_CURVE ( 'NONE', #96, #174, #206, .T. ) ;
#265 = ORIENTED_EDGE ( 'NONE', *, *, #247, .T. ) ;
#266 = EDGE_CURVE ( 'NONE', #289, #189, #221, .T. ) ;
#267 = CARTESIAN_POINT ( 'NONE',  ( 1.873069370657954646, 1.452317377489011019, 2.319056284064748841 ) ) ;
#268 = EDGE_CURVE ( 'NONE', #302, #59, #101, .T. ) ;
#269 = DIRECTION ( 'NONE',  ( -1.000000000000000000, 0.0000000000000000000, 0.0000000000000000000 ) ) ;
#270 = ADVANCED_FACE ( 'NONE', ( #162 ), #129, .T. ) ;
#271 = CARTESIAN_POINT ( 'NONE',  ( 1.873069370657954646, 1.452317377489011019, 1.282215185957353398 ) ) ;
#272 = LINE ( 'NONE', #13, #15 ) ;
#273 = ORIENTED_EDGE ( 'NONE', *, *, #52, .T. ) ;
#274 = DIRECTION ( 'NONE',  ( -0.0000000000000000000, -0.0000000000000000000, 1.000000000000000000 ) ) ;
#275 = SHAPE_DEFINITION_REPRESENTATION ( #118, #23 ) ;
#276 = DIRECTION ( 'NONE',  ( 1.000000000000000000, 0.0000000000000000000, 0.0000000000000000000 ) ) ;
#277 = DIRECTION ( 'NONE',  ( 1.000000000000000000, 0.0000000000000000000, 0.0000000000000000000 ) ) ;
#278 = SPHERICAL_SURFACE ( 'NONE', #236, 2.750999999999999890 ) ;
#279 = DIRECTION ( 'NONE',  ( -1.000000000000000000, 0.0000000000000000000, 0.0000000000000000000 ) ) ;
#280 = CARTESIAN_POINT ( 'NONE',  ( 3.323069370657954380, 1.452317377489011019, 1.232215185957352244 ) ) ;
#281 = PERSON ( 'UNSPECIFIED', 'UNSPECIFIED', 'UNSPECIFIED', ('UNSPECIFIED'), ('UNSPECIFIED'), ('UNSPECIFIED') ) ;
#282 = FACE_OUTER_BOUND ( 'NONE', #261, .T. ) ;
#283 = APPROVAL_STATUS ( 'not_yet_approved' ) ;
#284 = CALENDAR_DATE ( 2019, 24, 10 ) ;
#285 = APPLICATION_CONTEXT ( 'configuration controlled 3d designs of mechanical parts and assemblies' ) ;
#286 = AXIS2_PLACEMENT_3D ( 'NONE', #228, #29, #26 ) ;
#287 = APPROVAL_ROLE ( '' ) ;
#288 = AXIS2_PLACEMENT_3D ( 'NONE', #271, #274, #128 ) ;
#289 = VERTEX_POINT ( 'NONE', #280 ) ;
#290 = ORIENTED_EDGE ( 'NONE', *, *, #165, .F. ) ;
#291 = EDGE_CURVE ( 'NONE', #289, #59, #272, .T. ) ;
#292 = CONICAL_SURFACE ( 'NONE', #288, 1.500000000000000000, 0.7853981633974375098 ) ;
#293 = ORIENTED_EDGE ( 'NONE', *, *, #266, .F. ) ;
#294 = EDGE_CURVE ( 'NONE', #213, #204, #40, .T. ) ;
#295 = EDGE_LOOP ( 'NONE', ( #155, #293, #242, #123 ) ) ;
#296 = CC_DESIGN_PERSON_AND_ORGANIZATION_ASSIGNMENT ( #222, #93, ( #125 ) ) ;
#297 = LINE ( 'NONE', #181, #201 ) ;
#298 = DIRECTION ( 'NONE',  ( 1.000000000000000000, 0.0000000000000000000, 0.0000000000000000000 ) ) ;
#299 = CARTESIAN_POINT ( 'NONE',  ( 1.873069370657954646, 1.452317377489011019, 2.732215185957352244 ) ) ;
#300 = CARTESIAN_POINT ( 'NONE',  ( 1.873069370657954646, 1.452317377489011019, 1.282215185957353398 ) ) ;
#301 = EDGE_LOOP ( 'NONE', ( #235, #154, #198, #16 ) ) ;
#302 = VERTEX_POINT ( 'NONE', #10 ) ;
#303 = AXIS2_PLACEMENT_3D ( 'NONE', #57, #158, #230 ) ;
#304 = UNCERTAINTY_MEASURE_WITH_UNIT (LENGTH_MEASURE( 1.000000000000000082E-05 ), #216, 'distance_accuracy_value', 'NONE');
#305 = CARTESIAN_POINT ( 'NONE',  ( 3.373069370657954646, 1.452317377489011019, 2.732215185957352244 ) ) ;
#306 = EDGE_CURVE ( 'NONE', #141, #204, #4, .T. ) ;
#307 = DIRECTION ( 'NONE',  ( -0.0000000000000000000, -0.0000000000000000000, 1.000000000000000000 ) ) ;
#308 = CIRCLE ( 'NONE', #74, 2.750999999999999890 ) ;
#309 = ORIENTED_EDGE ( 'NONE', *, *, #321, .T. ) ;
#310 = APPLICATION_PROTOCOL_DEFINITION ( 'international standard', 'config_control_design', 1994, #138 ) ;
#311 = ORIENTED_EDGE ( 'NONE', *, *, #264, .F. ) ;
#312 = ORIENTED_EDGE ( 'NONE', *, *, #234, .F. ) ;
#313 = APPROVAL_DATE_TIME ( #121, #9 ) ;
#314 = ORIENTED_EDGE ( 'NONE', *, *, #268, .T. ) ;
#315 = PERSON_AND_ORGANIZATION ( #281, #37 ) ;
#316 = CC_DESIGN_DATE_AND_TIME_ASSIGNMENT ( #164, #139, ( #125 ) ) ;
#317 = VERTEX_POINT ( 'NONE', #188 ) ;
#318 = CC_DESIGN_APPROVAL ( #107, ( #94 ) ) ;
#319 = CALENDAR_DATE ( 2019, 24, 10 ) ;
#320 = EDGE_CURVE ( 'NONE', #240, #317, #308, .T. ) ;
#321 = EDGE_CURVE ( 'NONE', #59, #141, #257, .T. ) ;
ENDSEC;
END-ISO-10303-21;
