ISO-10303-21;
HEADER;
FILE_DESCRIPTION (( 'STEP AP203' ),
    '1' );
FILE_NAME ('Web Model 43847_49571.step',
    '2018-03-12T20:49:31',
    ( '' ),
    ( '' ),
    'SwSTEP 2.0',
    'SolidWorks 2016',
    '' );
FILE_SCHEMA (( 'CONFIG_CONTROL_DESIGN' ));
ENDSEC;

DATA;
#1 = LINE ( 'NONE', #114, #99 ) ;
#2 = PERSON_AND_ORGANIZATION ( #16, #217 ) ;
#3 = VECTOR ( 'NONE', #68, 1000.000000000000000 ) ;
#4 = EDGE_CURVE ( 'NONE', #149, #41, #211, .T. ) ;
#5 = CC_DESIGN_APPROVAL ( #224, ( #97 ) ) ;
#6 = CARTESIAN_POINT ( 'NONE',  ( 3.000000000000000000, 6.349999999999998800, 6.349999999999999600 ) ) ;
#7 = ORIENTED_EDGE ( 'NONE', *, *, #197, .T. ) ;
#8 = ORIENTED_EDGE ( 'NONE', *, *, #86, .T. ) ;
#9 = CARTESIAN_POINT ( 'NONE',  ( 3.000000000000000000, -6.350000000000000500, 6.350000000000002300 ) ) ;
#10 = APPROVAL_DATE_TIME ( #222, #164 ) ;
#11 = DIRECTION ( 'NONE',  ( 0.0000000000000000000, -1.000000000000000000, 2.048885995248197400E-016 ) ) ;
#12 = APPROVAL_STATUS ( 'not_yet_approved' ) ;
#13 = UNCERTAINTY_MEASURE_WITH_UNIT (LENGTH_MEASURE( 1.000000000000000100E-005 ), #74, 'distance_accuracy_value', 'NONE');
#14 = APPROVAL_STATUS ( 'not_yet_approved' ) ;
#15 = PERSON_AND_ORGANIZATION ( #16, #217 ) ;
#16 = PERSON ( 'UNSPECIFIED', 'UNSPECIFIED', 'UNSPECIFIED', ('UNSPECIFIED'), ('UNSPECIFIED'), ('UNSPECIFIED') ) ;
#17 = PERSON_AND_ORGANIZATION_ROLE ( 'design_owner' ) ;
#18 = LINE ( 'NONE', #49, #66 ) ;
#19 = PERSON_AND_ORGANIZATION ( #16, #217 ) ;
#20 = APPROVAL ( #14, 'UNSPECIFIED' ) ;
#21 = CC_DESIGN_APPROVAL ( #20, ( #155 ) ) ;
#22 = VECTOR ( 'NONE', #158, 1000.000000000000000 ) ;
#23 = CALENDAR_DATE ( 2018, 12, 3 ) ;
#24 = CARTESIAN_POINT ( 'NONE',  ( 3.000000000000000000, 6.349999999999998800, -6.349999999999999600 ) ) ;
#25 = FACE_OUTER_BOUND ( 'NONE', #153, .T. ) ;
#26 = DATE_AND_TIME ( #209, #191 ) ;
#27 = PERSON_AND_ORGANIZATION ( #16, #217 ) ;
#28 = DIRECTION ( 'NONE',  ( 0.0000000000000000000, -0.0000000000000000000, 1.000000000000000000 ) ) ;
#29 = VECTOR ( 'NONE', #129, 1000.000000000000000 ) ;
#30 = ORIENTED_EDGE ( 'NONE', *, *, #156, .F. ) ;
#31 = SECURITY_CLASSIFICATION_LEVEL ( 'unclassified' ) ;
#32 = DIRECTION ( 'NONE',  ( 0.0000000000000000000, 0.0000000000000000000, -1.000000000000000000 ) ) ;
#33 = CARTESIAN_POINT ( 'NONE',  ( 3.000000000000000000, 6.349999999999998800, -6.349999999999999600 ) ) ;
#34 = CC_DESIGN_PERSON_AND_ORGANIZATION_ASSIGNMENT ( #19, #230, ( #155 ) ) ;
#35 = CARTESIAN_POINT ( 'NONE',  ( 3.000000000000000000, -6.350000000000000500, -6.350000000000002300 ) ) ;
#36 = VERTEX_POINT ( 'NONE', #91 ) ;
#37 = APPROVAL_STATUS ( 'not_yet_approved' ) ;
#38 = APPROVAL_DATE_TIME ( #65, #224 ) ;
#39 = PERSON_AND_ORGANIZATION ( #16, #217 ) ;
#40 =( GEOMETRIC_REPRESENTATION_CONTEXT ( 3 ) GLOBAL_UNCERTAINTY_ASSIGNED_CONTEXT ( ( #13 ) ) GLOBAL_UNIT_ASSIGNED_CONTEXT ( ( #74, #130, #76 ) ) REPRESENTATION_CONTEXT ( 'NONE', 'WORKASPACE' ) );
#41 = VERTEX_POINT ( 'NONE', #159 ) ;
#42 = ORIENTED_EDGE ( 'NONE', *, *, #156, .T. ) ;
#43 = AXIS2_PLACEMENT_3D ( 'NONE', #113, #179, #32 ) ;
#44 = EDGE_CURVE ( 'NONE', #133, #160, #125, .T. ) ;
#45 = LINE ( 'NONE', #181, #174 ) ;
#46 = LINE ( 'NONE', #88, #193 ) ;
#47 = ADVANCED_FACE ( 'NONE', ( #25 ), #111, .F. ) ;
#48 = DIRECTION ( 'NONE',  ( -0.0000000000000000000, -0.0000000000000000000, 1.000000000000000000 ) ) ;
#49 = CARTESIAN_POINT ( 'NONE',  ( 3.000000000000000000, -6.350000000000000500, 6.350000000000002300 ) ) ;
#50 = CARTESIAN_POINT ( 'NONE',  ( -3.000000000000000000, 6.349999999999998800, -6.349999999999999600 ) ) ;
#51 = EDGE_CURVE ( 'NONE', #226, #135, #46, .T. ) ;
#52 = ORIENTED_EDGE ( 'NONE', *, *, #51, .T. ) ;
#53 = CARTESIAN_POINT ( 'NONE',  ( 3.000000000000000000, 6.349999999999998800, 6.349999999999999600 ) ) ;
#54 = LOCAL_TIME ( 16, 49, 31.00000000000000000, #185 ) ;
#55 = DIRECTION ( 'NONE',  ( 1.000000000000000000, 0.0000000000000000000, 0.0000000000000000000 ) ) ;
#56 = CARTESIAN_POINT ( 'NONE',  ( -3.000000000000000000, -6.350000000000000500, 6.350000000000002300 ) ) ;
#57 = VECTOR ( 'NONE', #131, 1000.000000000000000 ) ;
#58 = EDGE_LOOP ( 'NONE', ( #100, #236, #132, #64 ) ) ;
#59 = APPROVAL_ROLE ( '' ) ;
#60 = CARTESIAN_POINT ( 'NONE',  ( 3.000000000000000000, -6.350000000000000500, -6.350000000000002300 ) ) ;
#61 = APPROVAL_ROLE ( '' ) ;
#62 = APPROVAL_DATE_TIME ( #26, #20 ) ;
#63 = DATE_AND_TIME ( #154, #204 ) ;
#64 = ORIENTED_EDGE ( 'NONE', *, *, #184, .T. ) ;
#65 = DATE_AND_TIME ( #121, #134 ) ;
#66 = VECTOR ( 'NONE', #228, 1000.000000000000000 ) ;
#67 = LOCAL_TIME ( 16, 49, 31.00000000000000000, #122 ) ;
#68 = DIRECTION ( 'NONE',  ( 0.0000000000000000000, -1.000000000000000000, 2.048885995248197400E-016 ) ) ;
#69 = ORIENTED_EDGE ( 'NONE', *, *, #197, .F. ) ;
#70 = EDGE_LOOP ( 'NONE', ( #225, #90, #69, #79 ) ) ;
#71 = PLANE ( 'NONE',  #144 ) ;
#72 = CARTESIAN_POINT ( 'NONE',  ( -3.000000000000000000, -6.350000000000000500, -6.350000000000002300 ) ) ;
#73 = FACE_OUTER_BOUND ( 'NONE', #83, .T. ) ;
#74 =( LENGTH_UNIT ( ) NAMED_UNIT ( * ) SI_UNIT ( .MILLI., .METRE. ) );
#75 = CC_DESIGN_DATE_AND_TIME_ASSIGNMENT ( #85, #145, ( #97 ) ) ;
#76 =( NAMED_UNIT ( * ) SI_UNIT ( $, .STERADIAN. ) SOLID_ANGLE_UNIT ( ) );
#77 = PLANE ( 'NONE',  #43 ) ;
#78 = PERSON_AND_ORGANIZATION_ROLE ( 'creator' ) ;
#79 = ORIENTED_EDGE ( 'NONE', *, *, #167, .T. ) ;
#80 = ORIENTED_EDGE ( 'NONE', *, *, #86, .F. ) ;
#81 = PRODUCT_DEFINITION_SHAPE ( 'NONE', 'NONE',  #97 ) ;
#82 = APPROVAL_PERSON_ORGANIZATION ( #105, #164, #219 ) ;
#83 = EDGE_LOOP ( 'NONE', ( #229, #30, #138, #151 ) ) ;
#84 = CC_DESIGN_APPROVAL ( #164, ( #201 ) ) ;
#85 = DATE_AND_TIME ( #23, #54 ) ;
#86 = EDGE_CURVE ( 'NONE', #41, #215, #18, .T. ) ;
#87 = ORIENTED_EDGE ( 'NONE', *, *, #4, .T. ) ;
#88 = CARTESIAN_POINT ( 'NONE',  ( -3.000000000000000000, -6.350000000000000500, 6.350000000000002300 ) ) ;
#89 = ADVANCED_FACE ( 'NONE', ( #207 ), #109, .F. ) ;
#90 = ORIENTED_EDGE ( 'NONE', *, *, #44, .F. ) ;
#91 = CARTESIAN_POINT ( 'NONE',  ( -3.000000000000000000, 6.349999999999998800, 6.349999999999999600 ) ) ;
#92 = DIRECTION ( 'NONE',  ( 0.0000000000000000000, -2.048885995248197400E-016, 1.000000000000000000 ) ) ;
#93 = LINE ( 'NONE', #33, #168 ) ;
#94 = ORIENTED_EDGE ( 'NONE', *, *, #206, .F. ) ;
#95 = PERSON_AND_ORGANIZATION ( #16, #217 ) ;
#96 = PLANE ( 'NONE',  #107 ) ;
#97 = PRODUCT_DEFINITION ( 'UNKNOWN', '', #201, #182 ) ;
#98 = DIRECTION ( 'NONE',  ( 0.0000000000000000000, 0.0000000000000000000, -1.000000000000000000 ) ) ;
#99 = VECTOR ( 'NONE', #200, 1000.000000000000000 ) ;
#100 = ORIENTED_EDGE ( 'NONE', *, *, #150, .T. ) ;
#101 = COORDINATED_UNIVERSAL_TIME_OFFSET ( 5, 0, .BEHIND. ) ;
#102 = CC_DESIGN_SECURITY_CLASSIFICATION ( #155, ( #201 ) ) ;
#103 = VECTOR ( 'NONE', #48, 1000.000000000000000 ) ;
#104 = AXIS2_PLACEMENT_3D ( 'NONE', #9, #172, #28 ) ;
#105 = PERSON_AND_ORGANIZATION ( #16, #217 ) ;
#106 = ADVANCED_FACE ( 'NONE', ( #166 ), #124, .F. ) ;
#107 = AXIS2_PLACEMENT_3D ( 'NONE', #231, #116, #98 ) ;
#108 = CARTESIAN_POINT ( 'NONE',  ( -3.000000000000000000, 6.349999999999998800, -6.349999999999999600 ) ) ;
#109 = PLANE ( 'NONE',  #104 ) ;
#110 = DIRECTION ( 'NONE',  ( 0.0000000000000000000, -1.000000000000000000, 0.0000000000000000000 ) ) ;
#111 = PLANE ( 'NONE',  #169 ) ;
#112 = LINE ( 'NONE', #141, #103 ) ;
#113 = CARTESIAN_POINT ( 'NONE',  ( 3.000000000000000000, 0.0000000000000000000, 0.0000000000000000000 ) ) ;
#114 = CARTESIAN_POINT ( 'NONE',  ( 3.000000000000000000, 6.349999999999998800, 6.349999999999999600 ) ) ;
#115 = DIRECTION ( 'NONE',  ( 0.0000000000000000000, 0.0000000000000000000, 1.000000000000000000 ) ) ;
#116 = DIRECTION ( 'NONE',  ( 1.000000000000000000, 0.0000000000000000000, 0.0000000000000000000 ) ) ;
#117 = EDGE_CURVE ( 'NONE', #135, #160, #203, .T. ) ;
#118 = SHAPE_DEFINITION_REPRESENTATION ( #81, #194 ) ;
#119 = CC_DESIGN_PERSON_AND_ORGANIZATION_ASSIGNMENT ( #27, #202, ( #201 ) ) ;
#120 = VECTOR ( 'NONE', #11, 1000.000000000000000 ) ;
#121 = CALENDAR_DATE ( 2018, 12, 3 ) ;
#122 = COORDINATED_UNIVERSAL_TIME_OFFSET ( 5, 0, .BEHIND. ) ;
#123 = ADVANCED_FACE ( 'NONE', ( #235 ), #71, .F. ) ;
#124 = PLANE ( 'NONE',  #218 ) ;
#125 = LINE ( 'NONE', #24, #22 ) ;
#126 = PRODUCT_RELATED_PRODUCT_CATEGORY ( 'detail', '', ( #147 ) ) ;
#127 = DIRECTION ( 'NONE',  ( 0.0000000000000000000, -0.0000000000000000000, -1.000000000000000000 ) ) ;
#128 = DIRECTION ( 'NONE',  ( 0.0000000000000000000, 0.0000000000000000000, -1.000000000000000000 ) ) ;
#129 = DIRECTION ( 'NONE',  ( -1.000000000000000000, -0.0000000000000000000, -0.0000000000000000000 ) ) ;
#130 =( NAMED_UNIT ( * ) PLANE_ANGLE_UNIT ( ) SI_UNIT ( $, .RADIAN. ) );
#131 = DIRECTION ( 'NONE',  ( -1.000000000000000000, -0.0000000000000000000, -0.0000000000000000000 ) ) ;
#132 = ORIENTED_EDGE ( 'NONE', *, *, #4, .F. ) ;
#133 = VERTEX_POINT ( 'NONE', #175 ) ;
#134 = LOCAL_TIME ( 16, 49, 31.00000000000000000, #178 ) ;
#135 = VERTEX_POINT ( 'NONE', #72 ) ;
#136 = FACE_OUTER_BOUND ( 'NONE', #171, .T. ) ;
#137 = CARTESIAN_POINT ( 'NONE',  ( 3.000000000000000000, 6.349999999999998800, 6.349999999999999600 ) ) ;
#138 = ORIENTED_EDGE ( 'NONE', *, *, #117, .F. ) ;
#139 = CARTESIAN_POINT ( 'NONE',  ( 3.000000000000000000, 6.349999999999998800, -6.349999999999999600 ) ) ;
#140 = ORIENTED_EDGE ( 'NONE', *, *, #206, .T. ) ;
#141 = CARTESIAN_POINT ( 'NONE',  ( -3.000000000000000000, 6.349999999999998800, 6.349999999999999600 ) ) ;
#142 = PERSON_AND_ORGANIZATION_ROLE ( 'creator' ) ;
#143 = DIRECTION ( 'NONE',  ( -0.0000000000000000000, -0.0000000000000000000, 1.000000000000000000 ) ) ;
#144 = AXIS2_PLACEMENT_3D ( 'NONE', #139, #92, #216 ) ;
#145 = DATE_TIME_ROLE ( 'creation_date' ) ;
#146 = CLOSED_SHELL ( 'NONE', ( #106, #89, #123, #47, #189, #212 ) ) ;
#147 = PRODUCT ( 'Web Model 43847_49571', 'Web Model 43847_49571', '', ( #199 ) ) ;
#148 = APPLICATION_PROTOCOL_DEFINITION ( 'international standard', 'config_control_design', 1994, #161 ) ;
#149 = VERTEX_POINT ( 'NONE', #137 ) ;
#150 = EDGE_CURVE ( 'NONE', #36, #226, #186, .T. ) ;
#151 = ORIENTED_EDGE ( 'NONE', *, *, #51, .F. ) ;
#152 = VECTOR ( 'NONE', #213, 1000.000000000000000 ) ;
#153 = EDGE_LOOP ( 'NONE', ( #42, #176, #94, #162 ) ) ;
#154 = CALENDAR_DATE ( 2018, 12, 3 ) ;
#155 = SECURITY_CLASSIFICATION ( '', '', #31 ) ;
#156 = EDGE_CURVE ( 'NONE', #160, #36, #112, .T. ) ;
#157 = MANIFOLD_SOLID_BREP ( 'Boss-Extrude1', #146 ) ;
#158 = DIRECTION ( 'NONE',  ( -1.000000000000000000, -0.0000000000000000000, -0.0000000000000000000 ) ) ;
#159 = CARTESIAN_POINT ( 'NONE',  ( 3.000000000000000000, -6.350000000000000500, 6.350000000000002300 ) ) ;
#160 = VERTEX_POINT ( 'NONE', #108 ) ;
#161 = APPLICATION_CONTEXT ( 'configuration controlled 3d designs of mechanical parts and assemblies' ) ;
#162 = ORIENTED_EDGE ( 'NONE', *, *, #44, .T. ) ;
#163 = LINE ( 'NONE', #190, #29 ) ;
#164 = APPROVAL ( #12, 'UNSPECIFIED' ) ;
#165 = EDGE_CURVE ( 'NONE', #41, #226, #163, .T. ) ;
#166 = FACE_OUTER_BOUND ( 'NONE', #58, .T. ) ;
#167 = EDGE_CURVE ( 'NONE', #215, #135, #223, .T. ) ;
#168 = VECTOR ( 'NONE', #180, 1000.000000000000000 ) ;
#169 = AXIS2_PLACEMENT_3D ( 'NONE', #53, #110, #127 ) ;
#170 = DIRECTION ( 'NONE',  ( 0.0000000000000000000, -2.048885995248197400E-016, -1.000000000000000000 ) ) ;
#171 = EDGE_LOOP ( 'NONE', ( #87, #8, #7, #140 ) ) ;
#172 = DIRECTION ( 'NONE',  ( -0.0000000000000000000, 1.000000000000000000, 0.0000000000000000000 ) ) ;
#173 = PERSON_AND_ORGANIZATION ( #16, #217 ) ;
#174 = VECTOR ( 'NONE', #143, 1000.000000000000000 ) ;
#175 = CARTESIAN_POINT ( 'NONE',  ( 3.000000000000000000, 6.349999999999998800, -6.349999999999999600 ) ) ;
#176 = ORIENTED_EDGE ( 'NONE', *, *, #184, .F. ) ;
#177 = APPLICATION_CONTEXT ( 'configuration controlled 3d designs of mechanical parts and assemblies' ) ;
#178 = COORDINATED_UNIVERSAL_TIME_OFFSET ( 5, 0, .BEHIND. ) ;
#179 = DIRECTION ( 'NONE',  ( 1.000000000000000000, 0.0000000000000000000, 0.0000000000000000000 ) ) ;
#180 = DIRECTION ( 'NONE',  ( -0.0000000000000000000, 1.000000000000000000, 2.048885995248197400E-016 ) ) ;
#181 = CARTESIAN_POINT ( 'NONE',  ( 3.000000000000000000, 6.349999999999998800, 6.349999999999999600 ) ) ;
#182 = DESIGN_CONTEXT ( 'detailed design', #161, 'design' ) ;
#183 = CC_DESIGN_PERSON_AND_ORGANIZATION_ASSIGNMENT ( #15, #78, ( #97 ) ) ;
#184 = EDGE_CURVE ( 'NONE', #149, #36, #1, .T. ) ;
#185 = COORDINATED_UNIVERSAL_TIME_OFFSET ( 5, 0, .BEHIND. ) ;
#186 = LINE ( 'NONE', #196, #3 ) ;
#187 = AXIS2_PLACEMENT_3D ( 'NONE', #234, #115, #55 ) ;
#188 = CC_DESIGN_PERSON_AND_ORGANIZATION_ASSIGNMENT ( #173, #142, ( #201 ) ) ;
#189 = ADVANCED_FACE ( 'NONE', ( #136 ), #77, .T. ) ;
#190 = CARTESIAN_POINT ( 'NONE',  ( 3.000000000000000000, -6.350000000000000500, 6.350000000000002300 ) ) ;
#191 = LOCAL_TIME ( 16, 49, 31.00000000000000000, #101 ) ;
#192 = DIRECTION ( 'NONE',  ( 0.0000000000000000000, 1.000000000000000000, -2.048885995248197400E-016 ) ) ;
#193 = VECTOR ( 'NONE', #128, 1000.000000000000000 ) ;
#194 = ADVANCED_BREP_SHAPE_REPRESENTATION ( 'Web Model 43847_49571', ( #157, #187 ), #40 ) ;
#195 = EDGE_LOOP ( 'NONE', ( #52, #221, #80, #232 ) ) ;
#196 = CARTESIAN_POINT ( 'NONE',  ( -3.000000000000000000, 6.349999999999998800, 6.349999999999999600 ) ) ;
#197 = EDGE_CURVE ( 'NONE', #215, #133, #93, .T. ) ;
#198 = DATE_TIME_ROLE ( 'classification_date' ) ;
#199 = MECHANICAL_CONTEXT ( 'NONE', #177, 'mechanical' ) ;
#200 = DIRECTION ( 'NONE',  ( -1.000000000000000000, -0.0000000000000000000, -0.0000000000000000000 ) ) ;
#201 = PRODUCT_DEFINITION_FORMATION_WITH_SPECIFIED_SOURCE ( 'ANY', '', #147, .NOT_KNOWN. ) ;
#202 = PERSON_AND_ORGANIZATION_ROLE ( 'design_supplier' ) ;
#203 = LINE ( 'NONE', #50, #152 ) ;
#204 = LOCAL_TIME ( 16, 49, 31.00000000000000000, #220 ) ;
#205 = CALENDAR_DATE ( 2018, 12, 3 ) ;
#206 = EDGE_CURVE ( 'NONE', #133, #149, #45, .T. ) ;
#207 = FACE_OUTER_BOUND ( 'NONE', #195, .T. ) ;
#208 = CC_DESIGN_PERSON_AND_ORGANIZATION_ASSIGNMENT ( #39, #17, ( #147 ) ) ;
#209 = CALENDAR_DATE ( 2018, 12, 3 ) ;
#210 = APPROVAL_PERSON_ORGANIZATION ( #95, #224, #61 ) ;
#211 = LINE ( 'NONE', #227, #120 ) ;
#212 = ADVANCED_FACE ( 'NONE', ( #73 ), #96, .F. ) ;
#213 = DIRECTION ( 'NONE',  ( -0.0000000000000000000, 1.000000000000000000, 2.048885995248197400E-016 ) ) ;
#214 = CC_DESIGN_DATE_AND_TIME_ASSIGNMENT ( #63, #198, ( #155 ) ) ;
#215 = VERTEX_POINT ( 'NONE', #60 ) ;
#216 = DIRECTION ( 'NONE',  ( 0.0000000000000000000, -1.000000000000000000, -2.048885995248197400E-016 ) ) ;
#217 = ORGANIZATION ( 'UNSPECIFIED', 'UNSPECIFIED', '' ) ;
#218 = AXIS2_PLACEMENT_3D ( 'NONE', #6, #170, #192 ) ;
#219 = APPROVAL_ROLE ( '' ) ;
#220 = COORDINATED_UNIVERSAL_TIME_OFFSET ( 5, 0, .BEHIND. ) ;
#221 = ORIENTED_EDGE ( 'NONE', *, *, #167, .F. ) ;
#222 = DATE_AND_TIME ( #205, #67 ) ;
#223 = LINE ( 'NONE', #35, #57 ) ;
#224 = APPROVAL ( #37, 'UNSPECIFIED' ) ;
#225 = ORIENTED_EDGE ( 'NONE', *, *, #117, .T. ) ;
#226 = VERTEX_POINT ( 'NONE', #56 ) ;
#227 = CARTESIAN_POINT ( 'NONE',  ( 3.000000000000000000, 6.349999999999998800, 6.349999999999999600 ) ) ;
#228 = DIRECTION ( 'NONE',  ( 0.0000000000000000000, 0.0000000000000000000, -1.000000000000000000 ) ) ;
#229 = ORIENTED_EDGE ( 'NONE', *, *, #150, .F. ) ;
#230 = PERSON_AND_ORGANIZATION_ROLE ( 'classification_officer' ) ;
#231 = CARTESIAN_POINT ( 'NONE',  ( -3.000000000000000000, 0.0000000000000000000, 0.0000000000000000000 ) ) ;
#232 = ORIENTED_EDGE ( 'NONE', *, *, #165, .T. ) ;
#233 = APPLICATION_PROTOCOL_DEFINITION ( 'international standard', 'config_control_design', 1994, #177 ) ;
#234 = CARTESIAN_POINT ( 'NONE',  ( 0.0000000000000000000, 0.0000000000000000000, 0.0000000000000000000 ) ) ;
#235 = FACE_OUTER_BOUND ( 'NONE', #70, .T. ) ;
#236 = ORIENTED_EDGE ( 'NONE', *, *, #165, .F. ) ;
#237 = APPROVAL_PERSON_ORGANIZATION ( #2, #20, #59 ) ;
ENDSEC;
END-ISO-10303-21;
