ISO-10303-21;
HEADER;
FILE_DESCRIPTION (( 'STEP AP214' ),
    '1' );
FILE_NAME ('4862-E0W.STEP',
    '2009-12-21T17:15:35',
    ( ' ' ),
    ( ' ' ),
    'SwSTEP 2.0',
    'SolidWorks 2009',
    '' );
FILE_SCHEMA (( 'AUTOMOTIVE_DESIGN' ));
ENDSEC;

DATA;
#1 = APPLICATION_PROTOCOL_DEFINITION ( 'draft international standard', 'automotive_design', 1998, #2 ) ;
#2 = APPLICATION_CONTEXT ( 'automotive_design' ) ;
#3 = PRODUCT_CONTEXT ( 'NONE', #2, 'mechanical' ) ;
#4 = DIRECTION ( 'NONE',  ( 0.0000000000000000000, 0.0000000000000000000, 1.000000000000000000 ) ) ;
#5 = AXIS2_PLACEMENT_3D ( 'NONE', #7, #4, #6 ) ;
#6 = DIRECTION ( 'NONE',  ( 1.000000000000000000, 0.0000000000000000000, 0.0000000000000000000 ) ) ;
#7 = CARTESIAN_POINT ( 'NONE',  ( 0.0000000000000000000, 0.0000000000000000000, 0.0000000000000000000 ) ) ;
#8 = PRODUCT ( '4862-E0W', '4862-E0W', '', ( #3 ) ) ;
#9 = PRODUCT_DEFINITION ( 'UNKNOWN', '', #16, #13 ) ;
#10 = PRODUCT_DEFINITION_SHAPE ( 'NONE', 'NONE',  #9 ) ;
#11 = SHAPE_DEFINITION_REPRESENTATION ( #10, #21 ) ;
#12 = PRODUCT_RELATED_PRODUCT_CATEGORY ( 'part', '', ( #8 ) ) ;
#13 = PRODUCT_DEFINITION_CONTEXT ( 'detailed design', #14, 'design' ) ;
#14 = APPLICATION_CONTEXT ( 'automotive_design' ) ;
#15 = APPLICATION_PROTOCOL_DEFINITION ( 'draft international standard', 'automotive_design', 1998, #14 ) ;
#16 = PRODUCT_DEFINITION_FORMATION_WITH_SPECIFIED_SOURCE ( 'ANY', '', #8, .NOT_KNOWN. ) ;
#17 = MECHANICAL_DESIGN_GEOMETRIC_PRESENTATION_REPRESENTATION (  '', ( #18 ), #33 ) ;
#18 = STYLED_ITEM ( 'NONE', ( #28 ), #21 ) ;
#19 = FILL_AREA_STYLE ('',( #20 ) ) ;
#20 = FILL_AREA_STYLE_COLOUR ( '', #22 ) ;
#21 = ADVANCED_BREP_SHAPE_REPRESENTATION ( '4862-E0W', ( #178, #5 ), #24 ) ;
#22 = COLOUR_RGB ( '',0.7960784313725489700, 0.8235294117647058400, 0.9372549019607843100 ) ;
#23 =( LENGTH_UNIT ( ) NAMED_UNIT ( * ) SI_UNIT ( .MILLI., .METRE. ) );
#24 =( GEOMETRIC_REPRESENTATION_CONTEXT ( 3 ) GLOBAL_UNCERTAINTY_ASSIGNED_CONTEXT ( ( #248 ) ) GLOBAL_UNIT_ASSIGNED_CONTEXT ( ( #251, #250, #249 ) ) REPRESENTATION_CONTEXT ( 'NONE', 'WORKASPACE' ) );
#25 =( NAMED_UNIT ( * ) PLANE_ANGLE_UNIT ( ) SI_UNIT ( $, .RADIAN. ) );
#26 = SURFACE_STYLE_USAGE ( .BOTH. , #27 ) ;
#27 = SURFACE_SIDE_STYLE ('',( #29 ) ) ;
#28 = PRESENTATION_STYLE_ASSIGNMENT (( #26 ) ) ;
#29 = SURFACE_STYLE_FILL_AREA ( #19 ) ;
#30 = PRESENTATION_LAYER_ASSIGNMENT (  '', '', ( #18 ) ) ;
#31 = UNCERTAINTY_MEASURE_WITH_UNIT (LENGTH_MEASURE( 1.000000000000000100E-005 ), #23, 'distance_accuracy_value', 'NONE');
#32 =( NAMED_UNIT ( * ) SI_UNIT ( $, .STERADIAN. ) SOLID_ANGLE_UNIT ( ) );
#33 =( GEOMETRIC_REPRESENTATION_CONTEXT ( 3 ) GLOBAL_UNCERTAINTY_ASSIGNED_CONTEXT ( ( #31 ) ) GLOBAL_UNIT_ASSIGNED_CONTEXT ( ( #23, #25, #32 ) ) REPRESENTATION_CONTEXT ( 'NONE', 'WORKASPACE' ) );
#34 =( NAMED_UNIT ( * ) PLANE_ANGLE_UNIT ( ) SI_UNIT ( $, .RADIAN. ) );
#35 =( LENGTH_UNIT ( ) NAMED_UNIT ( * ) SI_UNIT ( .MILLI., .METRE. ) );
#36 = MECHANICAL_DESIGN_GEOMETRIC_PRESENTATION_REPRESENTATION (  '', ( #38 ), #107 ) ;
#37 = PRESENTATION_LAYER_ASSIGNMENT (  '', '', ( #38 ) ) ;
#38 = STYLED_ITEM ( 'NONE', ( #39 ), #179 ) ;
#39 = PRESENTATION_STYLE_ASSIGNMENT (( #40 ) ) ;
#40 = SURFACE_STYLE_USAGE ( .BOTH. , #41 ) ;
#41 = SURFACE_SIDE_STYLE ('',( #42 ) ) ;
#42 = SURFACE_STYLE_FILL_AREA ( #43 ) ;
#43 = FILL_AREA_STYLE ('',( #44 ) ) ;
#44 = FILL_AREA_STYLE_COLOUR ( '', #45 ) ;
#45 = COLOUR_RGB ( '',0.9568627450980391500, 0.9490196078431372100, 0.9607843137254902200 ) ;
#46 = FACE_OUTER_BOUND ( 'NONE', #180, .T. ) ;
#47 =( GEOMETRIC_REPRESENTATION_CONTEXT ( 3 ) GLOBAL_UNCERTAINTY_ASSIGNED_CONTEXT ( ( #48 ) ) GLOBAL_UNIT_ASSIGNED_CONTEXT ( ( #51, #50, #49 ) ) REPRESENTATION_CONTEXT ( 'NONE', 'WORKASPACE' ) );
#48 = UNCERTAINTY_MEASURE_WITH_UNIT (LENGTH_MEASURE( 1.000000000000000100E-005 ), #51, 'distance_accuracy_value', 'NONE');
#49 =( NAMED_UNIT ( * ) SI_UNIT ( $, .STERADIAN. ) SOLID_ANGLE_UNIT ( ) );
#50 =( NAMED_UNIT ( * ) PLANE_ANGLE_UNIT ( ) SI_UNIT ( $, .RADIAN. ) );
#51 =( LENGTH_UNIT ( ) NAMED_UNIT ( * ) SI_UNIT ( .MILLI., .METRE. ) );
#52 = MECHANICAL_DESIGN_GEOMETRIC_PRESENTATION_REPRESENTATION (  '', ( #54 ), #47 ) ;
#53 = PRESENTATION_LAYER_ASSIGNMENT (  '', '', ( #54 ) ) ;
#54 = STYLED_ITEM ( 'NONE', ( #55 ), #178 ) ;
#55 = PRESENTATION_STYLE_ASSIGNMENT (( #56 ) ) ;
#56 = SURFACE_STYLE_USAGE ( .BOTH. , #57 ) ;
#57 = SURFACE_SIDE_STYLE ('',( #58 ) ) ;
#58 = SURFACE_STYLE_FILL_AREA ( #59 ) ;
#59 = FILL_AREA_STYLE ('',( #104 ) ) ;
#60 = DIRECTION ( 'NONE',  ( 0.0000000000000000000, 1.000000000000000000, 0.0000000000000000000 ) ) ;
#61 = CARTESIAN_POINT ( 'NONE',  ( 0.0000000000000000000, 0.0000000000000000000, -173.7448761121009700 ) ) ;
#62 = CIRCLE ( 'NONE', #134, 171.5999999999999900 ) ;
#63 = DIRECTION ( 'NONE',  ( 1.000000000000000000, 0.0000000000000000000, 0.0000000000000000000 ) ) ;
#64 = DIRECTION ( 'NONE',  ( -0.0000000000000000000, -0.0000000000000000000, 1.000000000000000000 ) ) ;
#65 = CARTESIAN_POINT ( 'NONE',  ( 0.0000000000000000000, 0.0000000000000000000, -1.119329701789838500 ) ) ;
#66 = AXIS2_PLACEMENT_3D ( 'NONE', #65, #64, #63 ) ;
#67 = CIRCLE ( 'NONE', #66, 25.39999999999999900 ) ;
#68 = DIRECTION ( 'NONE',  ( -0.0000000000000000000, -0.0000000000000000000, 1.000000000000000000 ) ) ;
#69 = VECTOR ( 'NONE', #68, 1000.000000000000000 ) ;
#70 = CARTESIAN_POINT ( 'NONE',  ( -25.39999999999999900, 3.110500138708838200E-015, 9.850227642740110300 ) ) ;
#71 = LINE ( 'NONE', #70, #69 ) ;
#72 = CARTESIAN_POINT ( 'NONE',  ( 0.0000000000000000000, 25.39999999999998800, -4.035123887899059600 ) ) ;
#73 = DIRECTION ( 'NONE',  ( 0.0000000000000000000, 0.0000000000000000000, -1.000000000000000000 ) ) ;
#74 = DIRECTION ( 'NONE',  ( 1.000000000000000000, -0.0000000000000000000, 0.0000000000000000000 ) ) ;
#75 = CARTESIAN_POINT ( 'NONE',  ( 0.0000000000000000000, 0.0000000000000000000, -173.7448761121009700 ) ) ;
#76 = AXIS2_PLACEMENT_3D ( 'NONE', #75, #74, #73 ) ;
#77 = CIRCLE ( 'NONE', #76, 171.5999999999999900 ) ;
#78 = DIRECTION ( 'NONE',  ( 1.000000000000000000, 0.0000000000000000000, 0.0000000000000000000 ) ) ;
#79 = DIRECTION ( 'NONE',  ( -0.0000000000000000000, -0.0000000000000000000, 1.000000000000000000 ) ) ;
#80 = CARTESIAN_POINT ( 'NONE',  ( 0.0000000000000000000, 0.0000000000000000000, 9.850227642740110300 ) ) ;
#81 = AXIS2_PLACEMENT_3D ( 'NONE', #80, #79, #78 ) ;
#82 = CYLINDRICAL_SURFACE ( 'NONE', #81, 25.39999999999999900 ) ;
#83 =( GEOMETRIC_REPRESENTATION_CONTEXT ( 3 ) GLOBAL_UNCERTAINTY_ASSIGNED_CONTEXT ( ( #224 ) ) GLOBAL_UNIT_ASSIGNED_CONTEXT ( ( #227, #226, #225 ) ) REPRESENTATION_CONTEXT ( 'NONE', 'WORKASPACE' ) );
#84 = UNCERTAINTY_MEASURE_WITH_UNIT (LENGTH_MEASURE( 1.000000000000000100E-005 ), #142, 'distance_accuracy_value', 'NONE');
#85 =( NAMED_UNIT ( * ) SI_UNIT ( $, .STERADIAN. ) SOLID_ANGLE_UNIT ( ) );
#86 =( NAMED_UNIT ( * ) PLANE_ANGLE_UNIT ( ) SI_UNIT ( $, .RADIAN. ) );
#87 = PRESENTATION_STYLE_ASSIGNMENT (( #88 ) ) ;
#88 = SURFACE_STYLE_USAGE ( .BOTH. , #89 ) ;
#89 = SURFACE_SIDE_STYLE ('',( #90 ) ) ;
#90 = SURFACE_STYLE_FILL_AREA ( #91 ) ;
#91 = FILL_AREA_STYLE ('',( #92 ) ) ;
#92 = FILL_AREA_STYLE_COLOUR ( '', #93 ) ;
#93 = COLOUR_RGB ( '',0.9568627450980391500, 0.9490196078431372100, 0.9607843137254902200 ) ;
#94 = FACE_OUTER_BOUND ( 'NONE', #97, .T. ) ;
#95 = ORIENTED_EDGE ( 'NONE', *, *, #217, .F. ) ;
#96 = ADVANCED_FACE ( 'NONE', ( #94 ), #82, .T. ) ;
#97 = EDGE_LOOP ( 'NONE', ( #141, #218, #216, #212, #214, #211 ) ) ;
#98 = EDGE_CURVE ( 'NONE', #99, #140, #77, .T. ) ;
#99 = VERTEX_POINT ( 'NONE', #72 ) ;
#100 = DIRECTION ( 'NONE',  ( -1.000000000000000000, 0.0000000000000000000, 0.0000000000000000000 ) ) ;
#101 = CARTESIAN_POINT ( 'NONE',  ( 0.0000000000000000000, 0.0000000000000000000, -173.7448761121009700 ) ) ;
#102 = AXIS2_PLACEMENT_3D ( 'NONE', #101, #100, #60 ) ;
#103 = COLOUR_RGB ( '',0.7960784313725489700, 0.8235294117647058400, 0.9372549019607843100 ) ;
#104 = FILL_AREA_STYLE_COLOUR ( '', #103 ) ;
#105 = SPHERICAL_SURFACE ( 'NONE', #102, 171.5999999999999900 ) ;
#106 =( GEOMETRIC_REPRESENTATION_CONTEXT ( 3 ) GLOBAL_UNCERTAINTY_ASSIGNED_CONTEXT ( ( #116 ) ) GLOBAL_UNIT_ASSIGNED_CONTEXT ( ( #119, #118, #117 ) ) REPRESENTATION_CONTEXT ( 'NONE', 'WORKASPACE' ) );
#107 =( GEOMETRIC_REPRESENTATION_CONTEXT ( 3 ) GLOBAL_UNCERTAINTY_ASSIGNED_CONTEXT ( ( #108 ) ) GLOBAL_UNIT_ASSIGNED_CONTEXT ( ( #35, #34, #109 ) ) REPRESENTATION_CONTEXT ( 'NONE', 'WORKASPACE' ) );
#108 = UNCERTAINTY_MEASURE_WITH_UNIT (LENGTH_MEASURE( 1.000000000000000100E-005 ), #35, 'distance_accuracy_value', 'NONE');
#109 =( NAMED_UNIT ( * ) SI_UNIT ( $, .STERADIAN. ) SOLID_ANGLE_UNIT ( ) );
#110 = DIRECTION ( 'NONE',  ( 1.000000000000000000, 0.0000000000000000000, 0.0000000000000000000 ) ) ;
#111 = DIRECTION ( 'NONE',  ( -0.0000000000000000000, -0.0000000000000000000, 1.000000000000000000 ) ) ;
#112 = CARTESIAN_POINT ( 'NONE',  ( 0.0000000000000000000, 0.0000000000000000000, 9.850227642740110300 ) ) ;
#113 = AXIS2_PLACEMENT_3D ( 'NONE', #112, #111, #110 ) ;
#114 = CYLINDRICAL_SURFACE ( 'NONE', #113, 25.39999999999999900 ) ;
#115 =( GEOMETRIC_REPRESENTATION_CONTEXT ( 3 ) GLOBAL_UNCERTAINTY_ASSIGNED_CONTEXT ( ( #84 ) ) GLOBAL_UNIT_ASSIGNED_CONTEXT ( ( #142, #86, #85 ) ) REPRESENTATION_CONTEXT ( 'NONE', 'WORKASPACE' ) );
#116 = UNCERTAINTY_MEASURE_WITH_UNIT (LENGTH_MEASURE( 1.000000000000000100E-005 ), #119, 'distance_accuracy_value', 'NONE');
#117 =( NAMED_UNIT ( * ) SI_UNIT ( $, .STERADIAN. ) SOLID_ANGLE_UNIT ( ) );
#118 =( NAMED_UNIT ( * ) PLANE_ANGLE_UNIT ( ) SI_UNIT ( $, .RADIAN. ) );
#119 =( LENGTH_UNIT ( ) NAMED_UNIT ( * ) SI_UNIT ( .MILLI., .METRE. ) );
#120 = MECHANICAL_DESIGN_GEOMETRIC_PRESENTATION_REPRESENTATION (  '', ( #122 ), #106 ) ;
#121 = PRESENTATION_LAYER_ASSIGNMENT (  '', '', ( #122 ) ) ;
#122 = STYLED_ITEM ( 'NONE', ( #123 ), #170 ) ;
#123 = PRESENTATION_STYLE_ASSIGNMENT (( #124 ) ) ;
#124 = SURFACE_STYLE_USAGE ( .BOTH. , #125 ) ;
#125 = SURFACE_SIDE_STYLE ('',( #126 ) ) ;
#126 = SURFACE_STYLE_FILL_AREA ( #127 ) ;
#127 = FILL_AREA_STYLE ('',( #128 ) ) ;
#128 = FILL_AREA_STYLE_COLOUR ( '', #129 ) ;
#129 = COLOUR_RGB ( '',0.9568627450980391500, 0.9490196078431372100, 0.9607843137254902200 ) ;
#130 = FACE_OUTER_BOUND ( 'NONE', #171, .T. ) ;
#131 = CARTESIAN_POINT ( 'NONE',  ( 0.0000000000000000000, 1.050712251579599800E-014, -2.144876112100957400 ) ) ;
#132 = DIRECTION ( 'NONE',  ( -1.224606353822377300E-016, -1.000000000000000000, 0.0000000000000000000 ) ) ;
#133 = DIRECTION ( 'NONE',  ( -1.000000000000000000, 1.224606353822377300E-016, 0.0000000000000000000 ) ) ;
#134 = AXIS2_PLACEMENT_3D ( 'NONE', #61, #133, #132 ) ;
#135 = EDGE_CURVE ( 'NONE', #220, #213, #71, .T. ) ;
#136 = EDGE_CURVE ( 'NONE', #215, #213, #67, .T. ) ;
#137 = ORIENTED_EDGE ( 'NONE', *, *, #98, .F. ) ;
#138 = EDGE_CURVE ( 'NONE', #183, #140, #62, .T. ) ;
#139 = ORIENTED_EDGE ( 'NONE', *, *, #138, .T. ) ;
#140 = VERTEX_POINT ( 'NONE', #131 ) ;
#141 = ORIENTED_EDGE ( 'NONE', *, *, #217, .T. ) ;
#142 =( LENGTH_UNIT ( ) NAMED_UNIT ( * ) SI_UNIT ( .MILLI., .METRE. ) );
#143 = MECHANICAL_DESIGN_GEOMETRIC_PRESENTATION_REPRESENTATION (  '', ( #145 ), #115 ) ;
#144 = PRESENTATION_LAYER_ASSIGNMENT (  '', '', ( #145 ) ) ;
#145 = STYLED_ITEM ( 'NONE', ( #146 ), #190 ) ;
#146 = PRESENTATION_STYLE_ASSIGNMENT (( #147 ) ) ;
#147 = SURFACE_STYLE_USAGE ( .BOTH. , #148 ) ;
#148 = SURFACE_SIDE_STYLE ('',( #149 ) ) ;
#149 = SURFACE_STYLE_FILL_AREA ( #150 ) ;
#150 = FILL_AREA_STYLE ('',( #151 ) ) ;
#151 = FILL_AREA_STYLE_COLOUR ( '', #152 ) ;
#152 = COLOUR_RGB ( '',0.9568627450980391500, 0.9490196078431372100, 0.9607843137254902200 ) ;
#153 = DIRECTION ( 'NONE',  ( 1.000000000000000000, 0.0000000000000000000, 0.0000000000000000000 ) ) ;
#154 = DIRECTION ( 'NONE',  ( -0.0000000000000000000, -0.0000000000000000000, 1.000000000000000000 ) ) ;
#155 = CARTESIAN_POINT ( 'NONE',  ( 0.0000000000000000000, 0.0000000000000000000, -4.035123887899057800 ) ) ;
#156 = AXIS2_PLACEMENT_3D ( 'NONE', #155, #154, #153 ) ;
#157 = CIRCLE ( 'NONE', #156, 25.39999999999999900 ) ;
#158 = FACE_OUTER_BOUND ( 'NONE', #191, .T. ) ;
#159 = CARTESIAN_POINT ( 'NONE',  ( -3.110500138708837000E-015, -25.39999999999998800, -4.035123887899059600 ) ) ;
#160 = DIRECTION ( 'NONE',  ( 1.000000000000000000, 0.0000000000000000000, 0.0000000000000000000 ) ) ;
#161 = DIRECTION ( 'NONE',  ( -0.0000000000000000000, -0.0000000000000000000, 1.000000000000000000 ) ) ;
#162 = CARTESIAN_POINT ( 'NONE',  ( 0.0000000000000000000, 0.0000000000000000000, -4.035123887899057800 ) ) ;
#163 = AXIS2_PLACEMENT_3D ( 'NONE', #162, #161, #160 ) ;
#164 = DIRECTION ( 'NONE',  ( 0.0000000000000000000, 1.000000000000000000, 0.0000000000000000000 ) ) ;
#165 = DIRECTION ( 'NONE',  ( -1.000000000000000000, 0.0000000000000000000, 0.0000000000000000000 ) ) ;
#166 = CARTESIAN_POINT ( 'NONE',  ( 0.0000000000000000000, 0.0000000000000000000, -173.7448761121009700 ) ) ;
#167 = AXIS2_PLACEMENT_3D ( 'NONE', #166, #165, #164 ) ;
#168 = CIRCLE ( 'NONE', #163, 25.39999999999999900 ) ;
#169 = SPHERICAL_SURFACE ( 'NONE', #167, 171.5999999999999900 ) ;
#170 = ADVANCED_FACE ( 'NONE', ( #130 ), #105, .F. ) ;
#171 = EDGE_LOOP ( 'NONE', ( #174, #175, #172, #177 ) ) ;
#172 = ORIENTED_EDGE ( 'NONE', *, *, #219, .F. ) ;
#173 = CLOSED_SHELL ( 'NONE', ( #179, #96, #206, #199, #190, #170 ) ) ;
#174 = ORIENTED_EDGE ( 'NONE', *, *, #138, .F. ) ;
#175 = ORIENTED_EDGE ( 'NONE', *, *, #188, .F. ) ;
#176 = ORIENTED_EDGE ( 'NONE', *, *, #202, .F. ) ;
#177 = ORIENTED_EDGE ( 'NONE', *, *, #98, .T. ) ;
#178 = MANIFOLD_SOLID_BREP ( 'NONE', #173 ) ;
#179 = ADVANCED_FACE ( 'NONE', ( #46 ), #169, .F. ) ;
#180 = EDGE_LOOP ( 'NONE', ( #181, #139, #137, #95 ) ) ;
#181 = ORIENTED_EDGE ( 'NONE', *, *, #182, .F. ) ;
#182 = EDGE_CURVE ( 'NONE', #183, #223, #168, .T. ) ;
#183 = VERTEX_POINT ( 'NONE', #159 ) ;
#184 = ORIENTED_EDGE ( 'NONE', *, *, #198, .F. ) ;
#185 = ORIENTED_EDGE ( 'NONE', *, *, #222, .T. ) ;
#186 = ORIENTED_EDGE ( 'NONE', *, *, #135, .F. ) ;
#187 = ORIENTED_EDGE ( 'NONE', *, *, #188, .T. ) ;
#188 = EDGE_CURVE ( 'NONE', #220, #183, #157, .T. ) ;
#189 = ORIENTED_EDGE ( 'NONE', *, *, #209, .T. ) ;
#190 = ADVANCED_FACE ( 'NONE', ( #158 ), #114, .T. ) ;
#191 = EDGE_LOOP ( 'NONE', ( #186, #187, #221, #185, #184, #176 ) ) ;
#192 = ORIENTED_EDGE ( 'NONE', *, *, #197, .T. ) ;
#193 = ORIENTED_EDGE ( 'NONE', *, *, #198, .T. ) ;
#194 = VERTEX_POINT ( 'NONE', #316 ) ;
#195 = EDGE_LOOP ( 'NONE', ( #196, #193, #189, #192 ) ) ;
#196 = ORIENTED_EDGE ( 'NONE', *, *, #203, .F. ) ;
#197 = EDGE_CURVE ( 'NONE', #215, #194, #322, .T. ) ;
#198 = EDGE_CURVE ( 'NONE', #201, #210, #287, .T. ) ;
#199 = ADVANCED_FACE ( 'NONE', ( #288 ), #285, .T. ) ;
#200 = ORIENTED_EDGE ( 'NONE', *, *, #203, .T. ) ;
#201 = VERTEX_POINT ( 'NONE', #311 ) ;
#202 = EDGE_CURVE ( 'NONE', #213, #201, #304, .T. ) ;
#203 = EDGE_CURVE ( 'NONE', #201, #194, #298, .T. ) ;
#204 = ORIENTED_EDGE ( 'NONE', *, *, #197, .F. ) ;
#205 = ORIENTED_EDGE ( 'NONE', *, *, #136, .T. ) ;
#206 = ADVANCED_FACE ( 'NONE', ( #282 ), #232, .T. ) ;
#207 = EDGE_LOOP ( 'NONE', ( #205, #208, #200, #204 ) ) ;
#208 = ORIENTED_EDGE ( 'NONE', *, *, #202, .T. ) ;
#209 = EDGE_CURVE ( 'NONE', #210, #215, #243, .T. ) ;
#210 = VERTEX_POINT ( 'NONE', #270 ) ;
#211 = ORIENTED_EDGE ( 'NONE', *, *, #222, .F. ) ;
#212 = ORIENTED_EDGE ( 'NONE', *, *, #136, .F. ) ;
#213 = VERTEX_POINT ( 'NONE', #269 ) ;
#214 = ORIENTED_EDGE ( 'NONE', *, *, #209, .F. ) ;
#215 = VERTEX_POINT ( 'NONE', #268 ) ;
#216 = ORIENTED_EDGE ( 'NONE', *, *, #135, .T. ) ;
#217 = EDGE_CURVE ( 'NONE', #223, #99, #267, .T. ) ;
#218 = ORIENTED_EDGE ( 'NONE', *, *, #219, .T. ) ;
#219 = EDGE_CURVE ( 'NONE', #99, #220, #262, .T. ) ;
#220 = VERTEX_POINT ( 'NONE', #257 ) ;
#221 = ORIENTED_EDGE ( 'NONE', *, *, #182, .T. ) ;
#222 = EDGE_CURVE ( 'NONE', #223, #210, #256, .T. ) ;
#223 = VERTEX_POINT ( 'NONE', #252 ) ;
#224 = UNCERTAINTY_MEASURE_WITH_UNIT (LENGTH_MEASURE( 1.000000000000000100E-005 ), #227, 'distance_accuracy_value', 'NONE');
#225 =( NAMED_UNIT ( * ) SI_UNIT ( $, .STERADIAN. ) SOLID_ANGLE_UNIT ( ) );
#226 =( NAMED_UNIT ( * ) PLANE_ANGLE_UNIT ( ) SI_UNIT ( $, .RADIAN. ) );
#227 =( LENGTH_UNIT ( ) NAMED_UNIT ( * ) SI_UNIT ( .MILLI., .METRE. ) );
#228 = MECHANICAL_DESIGN_GEOMETRIC_PRESENTATION_REPRESENTATION (  '', ( #230 ), #83 ) ;
#229 = PRESENTATION_LAYER_ASSIGNMENT (  '', '', ( #230 ) ) ;
#230 = STYLED_ITEM ( 'NONE', ( #87 ), #96 ) ;
#231 = AXIS2_PLACEMENT_3D ( 'NONE', #242, #241, #240 ) ;
#232 = SPHERICAL_SURFACE ( 'NONE', #231, 65.15999999999999700 ) ;
#233 =( GEOMETRIC_REPRESENTATION_CONTEXT ( 3 ) GLOBAL_UNCERTAINTY_ASSIGNED_CONTEXT ( ( #234 ) ) GLOBAL_UNIT_ASSIGNED_CONTEXT ( ( #272, #236, #235 ) ) REPRESENTATION_CONTEXT ( 'NONE', 'WORKASPACE' ) );
#234 = UNCERTAINTY_MEASURE_WITH_UNIT (LENGTH_MEASURE( 1.000000000000000100E-005 ), #272, 'distance_accuracy_value', 'NONE');
#235 =( NAMED_UNIT ( * ) SI_UNIT ( $, .STERADIAN. ) SOLID_ANGLE_UNIT ( ) );
#236 =( NAMED_UNIT ( * ) PLANE_ANGLE_UNIT ( ) SI_UNIT ( $, .RADIAN. ) );
#237 = DIRECTION ( 'NONE',  ( -0.0000000000000000000, -0.0000000000000000000, 1.000000000000000000 ) ) ;
#238 = CARTESIAN_POINT ( 'NONE',  ( 0.0000000000000000000, 0.0000000000000000000, -1.119329701789838500 ) ) ;
#239 = AXIS2_PLACEMENT_3D ( 'NONE', #238, #237, #271 ) ;
#240 = DIRECTION ( 'NONE',  ( 0.0000000000000000000, 1.000000000000000000, 0.0000000000000000000 ) ) ;
#241 = DIRECTION ( 'NONE',  ( -1.000000000000000000, 0.0000000000000000000, 0.0000000000000000000 ) ) ;
#242 = CARTESIAN_POINT ( 'NONE',  ( 0.0000000000000000000, 0.0000000000000000000, -61.12487611210093500 ) ) ;
#243 = CIRCLE ( 'NONE', #239, 25.39999999999999900 ) ;
#244 = DIRECTION ( 'NONE',  ( 1.000000000000000000, 0.0000000000000000000, 0.0000000000000000000 ) ) ;
#245 = DIRECTION ( 'NONE',  ( -0.0000000000000000000, -0.0000000000000000000, 1.000000000000000000 ) ) ;
#246 =( NAMED_UNIT ( * ) SI_UNIT ( $, .STERADIAN. ) SOLID_ANGLE_UNIT ( ) );
#247 =( LENGTH_UNIT ( ) NAMED_UNIT ( * ) SI_UNIT ( .MILLI., .METRE. ) );
#248 = UNCERTAINTY_MEASURE_WITH_UNIT (LENGTH_MEASURE( 1.000000000000000100E-005 ), #251, 'distance_accuracy_value', 'NONE');
#249 =( NAMED_UNIT ( * ) SI_UNIT ( $, .STERADIAN. ) SOLID_ANGLE_UNIT ( ) );
#250 =( NAMED_UNIT ( * ) PLANE_ANGLE_UNIT ( ) SI_UNIT ( $, .RADIAN. ) );
#251 =( LENGTH_UNIT ( ) NAMED_UNIT ( * ) SI_UNIT ( .MILLI., .METRE. ) );
#252 = CARTESIAN_POINT ( 'NONE',  ( 25.39999999999999900, 0.0000000000000000000, -4.035123887899057800 ) ) ;
#253 = DIRECTION ( 'NONE',  ( -0.0000000000000000000, -0.0000000000000000000, 1.000000000000000000 ) ) ;
#254 = VECTOR ( 'NONE', #253, 1000.000000000000000 ) ;
#255 = CARTESIAN_POINT ( 'NONE',  ( 25.39999999999999900, 0.0000000000000000000, 9.850227642740110300 ) ) ;
#256 = LINE ( 'NONE', #255, #254 ) ;
#257 = CARTESIAN_POINT ( 'NONE',  ( -25.39999999999999900, 3.110500138708838200E-015, -4.035123887899057800 ) ) ;
#258 = DIRECTION ( 'NONE',  ( 1.000000000000000000, 0.0000000000000000000, 0.0000000000000000000 ) ) ;
#259 = DIRECTION ( 'NONE',  ( -0.0000000000000000000, -0.0000000000000000000, 1.000000000000000000 ) ) ;
#260 = CARTESIAN_POINT ( 'NONE',  ( 0.0000000000000000000, 0.0000000000000000000, -4.035123887899057800 ) ) ;
#261 = AXIS2_PLACEMENT_3D ( 'NONE', #260, #259, #258 ) ;
#262 = CIRCLE ( 'NONE', #261, 25.39999999999999900 ) ;
#263 = DIRECTION ( 'NONE',  ( 1.000000000000000000, 0.0000000000000000000, 0.0000000000000000000 ) ) ;
#264 = DIRECTION ( 'NONE',  ( -0.0000000000000000000, -0.0000000000000000000, 1.000000000000000000 ) ) ;
#265 = CARTESIAN_POINT ( 'NONE',  ( 0.0000000000000000000, 0.0000000000000000000, -4.035123887899057800 ) ) ;
#266 = AXIS2_PLACEMENT_3D ( 'NONE', #265, #264, #263 ) ;
#267 = CIRCLE ( 'NONE', #266, 25.39999999999999900 ) ;
#268 = CARTESIAN_POINT ( 'NONE',  ( 0.0000000000000000000, 25.40000000000000200, -1.119329701789837600 ) ) ;
#269 = CARTESIAN_POINT ( 'NONE',  ( -25.39999999999999900, 3.110500138708838200E-015, -1.119329701789838500 ) ) ;
#270 = CARTESIAN_POINT ( 'NONE',  ( 25.39999999999999900, 0.0000000000000000000, -1.119329701789838500 ) ) ;
#271 = DIRECTION ( 'NONE',  ( 1.000000000000000000, 0.0000000000000000000, 0.0000000000000000000 ) ) ;
#272 =( LENGTH_UNIT ( ) NAMED_UNIT ( * ) SI_UNIT ( .MILLI., .METRE. ) );
#273 = MECHANICAL_DESIGN_GEOMETRIC_PRESENTATION_REPRESENTATION (  '', ( #275 ), #233 ) ;
#274 = PRESENTATION_LAYER_ASSIGNMENT (  '', '', ( #275 ) ) ;
#275 = STYLED_ITEM ( 'NONE', ( #276 ), #206 ) ;
#276 = PRESENTATION_STYLE_ASSIGNMENT (( #277 ) ) ;
#277 = SURFACE_STYLE_USAGE ( .BOTH. , #278 ) ;
#278 = SURFACE_SIDE_STYLE ('',( #279 ) ) ;
#279 = SURFACE_STYLE_FILL_AREA ( #280 ) ;
#280 = FILL_AREA_STYLE ('',( #299 ) ) ;
#281 = COLOUR_RGB ( '',0.9568627450980391500, 0.9490196078431372100, 0.9607843137254902200 ) ;
#282 = FACE_OUTER_BOUND ( 'NONE', #207, .T. ) ;
#283 = DIRECTION ( 'NONE',  ( -1.224606353822377300E-016, -1.000000000000000000, 0.0000000000000000000 ) ) ;
#284 = CARTESIAN_POINT ( 'NONE',  ( 0.0000000000000000000, 0.0000000000000000000, -61.12487611210093500 ) ) ;
#285 = SPHERICAL_SURFACE ( 'NONE', #290, 65.15999999999999700 ) ;
#286 = UNCERTAINTY_MEASURE_WITH_UNIT (LENGTH_MEASURE( 1.000000000000000100E-005 ), #247, 'distance_accuracy_value', 'NONE');
#287 = CIRCLE ( 'NONE', #321, 25.39999999999999900 ) ;
#288 = FACE_OUTER_BOUND ( 'NONE', #195, .T. ) ;
#289 = CARTESIAN_POINT ( 'NONE',  ( 0.0000000000000000000, 0.0000000000000000000, -1.119329701789838500 ) ) ;
#290 = AXIS2_PLACEMENT_3D ( 'NONE', #284, #313, #312 ) ;
#291 =( GEOMETRIC_REPRESENTATION_CONTEXT ( 3 ) GLOBAL_UNCERTAINTY_ASSIGNED_CONTEXT ( ( #286 ) ) GLOBAL_UNIT_ASSIGNED_CONTEXT ( ( #247, #306, #246 ) ) REPRESENTATION_CONTEXT ( 'NONE', 'WORKASPACE' ) );
#292 = MECHANICAL_DESIGN_GEOMETRIC_PRESENTATION_REPRESENTATION (  '', ( #294 ), #291 ) ;
#293 = PRESENTATION_LAYER_ASSIGNMENT (  '', '', ( #294 ) ) ;
#294 = STYLED_ITEM ( 'NONE', ( #317 ), #199 ) ;
#295 = CARTESIAN_POINT ( 'NONE',  ( 0.0000000000000000000, 0.0000000000000000000, -61.12487611210093500 ) ) ;
#296 = DIRECTION ( 'NONE',  ( -1.000000000000000000, 1.224606353822377300E-016, 0.0000000000000000000 ) ) ;
#297 = AXIS2_PLACEMENT_3D ( 'NONE', #310, #296, #283 ) ;
#298 = CIRCLE ( 'NONE', #297, 65.15999999999999700 ) ;
#299 = FILL_AREA_STYLE_COLOUR ( '', #281 ) ;
#300 = DIRECTION ( 'NONE',  ( 1.000000000000000000, 0.0000000000000000000, 0.0000000000000000000 ) ) ;
#301 = DIRECTION ( 'NONE',  ( -0.0000000000000000000, -0.0000000000000000000, 1.000000000000000000 ) ) ;
#302 = CARTESIAN_POINT ( 'NONE',  ( 0.0000000000000000000, 0.0000000000000000000, -1.119329701789838500 ) ) ;
#303 = AXIS2_PLACEMENT_3D ( 'NONE', #302, #301, #300 ) ;
#304 = CIRCLE ( 'NONE', #303, 25.39999999999999900 ) ;
#305 = AXIS2_PLACEMENT_3D ( 'NONE', #295, #315, #314 ) ;
#306 =( NAMED_UNIT ( * ) PLANE_ANGLE_UNIT ( ) SI_UNIT ( $, .RADIAN. ) );
#307 = FILL_AREA_STYLE ('',( #308 ) ) ;
#308 = FILL_AREA_STYLE_COLOUR ( '', #309 ) ;
#309 = COLOUR_RGB ( '',0.9568627450980391500, 0.9490196078431372100, 0.9607843137254902200 ) ;
#310 = CARTESIAN_POINT ( 'NONE',  ( 0.0000000000000000000, 0.0000000000000000000, -61.12487611210093500 ) ) ;
#311 = CARTESIAN_POINT ( 'NONE',  ( -3.110500138708838600E-015, -25.40000000000000200, -1.119329701789837600 ) ) ;
#312 = DIRECTION ( 'NONE',  ( 0.0000000000000000000, 1.000000000000000000, 0.0000000000000000000 ) ) ;
#313 = DIRECTION ( 'NONE',  ( -1.000000000000000000, 0.0000000000000000000, 0.0000000000000000000 ) ) ;
#314 = DIRECTION ( 'NONE',  ( 0.0000000000000000000, 0.0000000000000000000, -1.000000000000000000 ) ) ;
#315 = DIRECTION ( 'NONE',  ( 1.000000000000000000, 0.0000000000000000000, 0.0000000000000000000 ) ) ;
#316 = CARTESIAN_POINT ( 'NONE',  ( 0.0000000000000000000, 3.989767500753305200E-015, 4.035123887899061400 ) ) ;
#317 = PRESENTATION_STYLE_ASSIGNMENT (( #318 ) ) ;
#318 = SURFACE_STYLE_USAGE ( .BOTH. , #319 ) ;
#319 = SURFACE_SIDE_STYLE ('',( #320 ) ) ;
#320 = SURFACE_STYLE_FILL_AREA ( #307 ) ;
#321 = AXIS2_PLACEMENT_3D ( 'NONE', #289, #245, #244 ) ;
#322 = CIRCLE ( 'NONE', #305, 65.15999999999999700 ) ;
ENDSEC;
END-ISO-10303-21;
