ISO-10303-21;
HEADER;
FILE_DESCRIPTION (( 'STEP AP203' ),
    '1' );
FILE_NAME ('Web Model 20464_20528.step',
    '2022-06-06T20:41:06',
    ( 'WC' ),
    ( 'Windows Central' ),
    'SwSTEP 2.0',
    'SolidWorks 2021',
    '' );
FILE_SCHEMA (( 'CONFIG_CONTROL_DESIGN' ));
ENDSEC;

DATA;
#1 = PRODUCT_DEFINITION ( 'UNKNOWN', '', #150, #101 ) ;
#2 = PERSON_AND_ORGANIZATION_ROLE ( 'creator' ) ;
#3 = CC_DESIGN_PERSON_AND_ORGANIZATION_ASSIGNMENT ( #55, #111, ( #150 ) ) ;
#4 = CARTESIAN_POINT ( 'NONE',  ( -15.00000000000000000, 0.000000000000000000, 1.000000000000000000 ) ) ;
#5 = PERSON_AND_ORGANIZATION_ROLE ( 'creator' ) ;
#6 = COORDINATED_UNIVERSAL_TIME_OFFSET ( 5, 0, .BEHIND. ) ;
#7 = CYLINDRICAL_SURFACE ( 'NONE', #89, 15.00000000000000000 ) ;
#8 = ADVANCED_FACE ( 'NONE', ( #41 ), #154, .T. ) ;
#9 = EDGE_LOOP ( 'NONE', ( #139, #39 ) ) ;
#10 = PLANE ( 'NONE',  #73 ) ;
#11 =( GEOMETRIC_REPRESENTATION_CONTEXT ( 3 ) GLOBAL_UNCERTAINTY_ASSIGNED_CONTEXT ( ( #168 ) ) GLOBAL_UNIT_ASSIGNED_CONTEXT ( ( #148, #34, #88 ) ) REPRESENTATION_CONTEXT ( 'NONE', 'WORKASPACE' ) );
#12 = DIRECTION ( 'NONE',  ( -0.000000000000000000, -0.000000000000000000, -1.000000000000000000 ) ) ;
#13 = CARTESIAN_POINT ( 'NONE',  ( 15.00000000000000000, 1.836970198721029589E-15, 0.000000000000000000 ) ) ;
#14 = CIRCLE ( 'NONE', #133, 15.00000000000000000 ) ;
#15 = DIRECTION ( 'NONE',  ( 1.000000000000000000, 0.000000000000000000, 0.000000000000000000 ) ) ;
#16 = AXIS2_PLACEMENT_3D ( 'NONE', #25, #43, #119 ) ;
#17 = DATE_AND_TIME ( #37, #57 ) ;
#18 = CARTESIAN_POINT ( 'NONE',  ( -15.00000000000000000, 0.000000000000000000, 1.000000000000000000 ) ) ;
#19 = DATE_AND_TIME ( #97, #127 ) ;
#20 = DATE_AND_TIME ( #125, #124 ) ;
#21 = EDGE_CURVE ( 'NONE', #79, #161, #26, .T. ) ;
#22 = DATE_TIME_ROLE ( 'classification_date' ) ;
#23 = ORIENTED_EDGE ( 'NONE', *, *, #140, .T. ) ;
#24 = VECTOR ( 'NONE', #86, 1000.000000000000000 ) ;
#25 = CARTESIAN_POINT ( 'NONE',  ( 0.000000000000000000, 0.000000000000000000, 1.000000000000000000 ) ) ;
#26 = CIRCLE ( 'NONE', #16, 15.00000000000000000 ) ;
#27 = ADVANCED_FACE ( 'NONE', ( #174 ), #106, .T. ) ;
#28 = PRODUCT ( 'Web Model 20464_20528', 'Web Model 20464_20528', '', ( #31 ) ) ;
#29 = VECTOR ( 'NONE', #167, 1000.000000000000000 ) ;
#30 = APPROVAL ( #72, 'UNSPECIFIED' ) ;
#31 = MECHANICAL_CONTEXT ( 'NONE', #63, 'mechanical' ) ;
#32 = COORDINATED_UNIVERSAL_TIME_OFFSET ( 5, 0, .BEHIND. ) ;
#33 = AXIS2_PLACEMENT_3D ( 'NONE', #153, #156, #102 ) ;
#34 =( NAMED_UNIT ( * ) PLANE_ANGLE_UNIT ( ) SI_UNIT ( $, .RADIAN. ) );
#35 = APPROVAL_STATUS ( 'not_yet_approved' ) ;
#36 = DIRECTION ( 'NONE',  ( -0.000000000000000000, -0.000000000000000000, -1.000000000000000000 ) ) ;
#37 = CALENDAR_DATE ( 2022, 6, 6 ) ;
#38 = CC_DESIGN_DATE_AND_TIME_ASSIGNMENT ( #19, #50, ( #1 ) ) ;
#39 = ORIENTED_EDGE ( 'NONE', *, *, #56, .T. ) ;
#40 = SHAPE_DEFINITION_REPRESENTATION ( #162, #172 ) ;
#41 = FACE_OUTER_BOUND ( 'NONE', #9, .T. ) ;
#42 = ORIENTED_EDGE ( 'NONE', *, *, #21, .F. ) ;
#43 = DIRECTION ( 'NONE',  ( 0.000000000000000000, 0.000000000000000000, 1.000000000000000000 ) ) ;
#44 = CIRCLE ( 'NONE', #147, 15.00000000000000000 ) ;
#45 = CC_DESIGN_PERSON_AND_ORGANIZATION_ASSIGNMENT ( #123, #2, ( #1 ) ) ;
#46 = AXIS2_PLACEMENT_3D ( 'NONE', #87, #58, #114 ) ;
#47 = APPLICATION_PROTOCOL_DEFINITION ( 'international standard', 'config_control_design', 1994, #63 ) ;
#48 = DATE_AND_TIME ( #132, #115 ) ;
#49 = ADVANCED_FACE ( 'NONE', ( #135 ), #7, .T. ) ;
#50 = DATE_TIME_ROLE ( 'creation_date' ) ;
#51 = APPROVAL ( #144, 'UNSPECIFIED' ) ;
#52 = DIRECTION ( 'NONE',  ( 1.000000000000000000, 0.000000000000000000, 0.000000000000000000 ) ) ;
#53 = MANIFOLD_SOLID_BREP ( 'Boss-Extrude1', #105 ) ;
#54 = EDGE_CURVE ( 'NONE', #74, #62, #14, .T. ) ;
#55 = PERSON_AND_ORGANIZATION ( #163, #158 ) ;
#56 = EDGE_CURVE ( 'NONE', #161, #79, #171, .T. ) ;
#57 = LOCAL_TIME ( 16, 41, 6.000000000000000000, #32 ) ;
#58 = DIRECTION ( 'NONE',  ( 0.000000000000000000, 0.000000000000000000, 1.000000000000000000 ) ) ;
#59 = CARTESIAN_POINT ( 'NONE',  ( 0.000000000000000000, 0.000000000000000000, 1.000000000000000000 ) ) ;
#60 = EDGE_LOOP ( 'NONE', ( #71, #42, #23, #77 ) ) ;
#61 = CARTESIAN_POINT ( 'NONE',  ( 0.000000000000000000, 0.000000000000000000, 0.000000000000000000 ) ) ;
#62 = VERTEX_POINT ( 'NONE', #108 ) ;
#63 = APPLICATION_CONTEXT ( 'configuration controlled 3d designs of mechanical parts and assemblies' ) ;
#64 = CC_DESIGN_PERSON_AND_ORGANIZATION_ASSIGNMENT ( #165, #100, ( #28 ) ) ;
#65 = LOCAL_TIME ( 16, 41, 6.000000000000000000, #78 ) ;
#66 = CARTESIAN_POINT ( 'NONE',  ( 15.00000000000000000, 1.836970198721029589E-15, 1.000000000000000000 ) ) ;
#67 = AXIS2_PLACEMENT_3D ( 'NONE', #129, #12, #145 ) ;
#68 = LINE ( 'NONE', #134, #24 ) ;
#69 = APPROVAL_DATE_TIME ( #17, #30 ) ;
#70 = APPROVAL_DATE_TIME ( #48, #170 ) ;
#71 = ORIENTED_EDGE ( 'NONE', *, *, #131, .F. ) ;
#72 = APPROVAL_STATUS ( 'not_yet_approved' ) ;
#73 = AXIS2_PLACEMENT_3D ( 'NONE', #136, #152, #121 ) ;
#74 = VERTEX_POINT ( 'NONE', #13 ) ;
#75 = APPROVAL_ROLE ( '' ) ;
#76 = APPROVAL_DATE_TIME ( #20, #51 ) ;
#77 = ORIENTED_EDGE ( 'NONE', *, *, #109, .T. ) ;
#78 = COORDINATED_UNIVERSAL_TIME_OFFSET ( 5, 0, .BEHIND. ) ;
#79 = VERTEX_POINT ( 'NONE', #18 ) ;
#80 = PRODUCT_RELATED_PRODUCT_CATEGORY ( 'detail', '', ( #28 ) ) ;
#81 = DIRECTION ( 'NONE',  ( 1.000000000000000000, 0.000000000000000000, 0.000000000000000000 ) ) ;
#82 = CC_DESIGN_APPROVAL ( #170, ( #1 ) ) ;
#83 = PERSON_AND_ORGANIZATION ( #163, #158 ) ;
#84 = DIRECTION ( 'NONE',  ( 0.000000000000000000, 0.000000000000000000, 1.000000000000000000 ) ) ;
#85 = CC_DESIGN_DATE_AND_TIME_ASSIGNMENT ( #116, #22, ( #141 ) ) ;
#86 = DIRECTION ( 'NONE',  ( -0.000000000000000000, -0.000000000000000000, -1.000000000000000000 ) ) ;
#87 = CARTESIAN_POINT ( 'NONE',  ( 0.000000000000000000, 0.000000000000000000, 1.000000000000000000 ) ) ;
#88 =( NAMED_UNIT ( * ) SI_UNIT ( $, .STERADIAN. ) SOLID_ANGLE_UNIT ( ) );
#89 = AXIS2_PLACEMENT_3D ( 'NONE', #59, #36, #157 ) ;
#90 = CC_DESIGN_SECURITY_CLASSIFICATION ( #141, ( #150 ) ) ;
#91 = PERSON_AND_ORGANIZATION ( #163, #158 ) ;
#92 = ORIENTED_EDGE ( 'NONE', *, *, #56, .F. ) ;
#93 = DIRECTION ( 'NONE',  ( 0.000000000000000000, 0.000000000000000000, 1.000000000000000000 ) ) ;
#94 = COORDINATED_UNIVERSAL_TIME_OFFSET ( 5, 0, .BEHIND. ) ;
#95 = APPROVAL_PERSON_ORGANIZATION ( #83, #170, #149 ) ;
#96 = APPLICATION_CONTEXT ( 'configuration controlled 3d designs of mechanical parts and assemblies' ) ;
#97 = CALENDAR_DATE ( 2022, 6, 6 ) ;
#98 = SECURITY_CLASSIFICATION_LEVEL ( 'unclassified' ) ;
#99 = ADVANCED_FACE ( 'NONE', ( #143 ), #10, .F. ) ;
#100 = PERSON_AND_ORGANIZATION_ROLE ( 'design_owner' ) ;
#101 = DESIGN_CONTEXT ( 'detailed design', #96, 'design' ) ;
#102 = DIRECTION ( 'NONE',  ( 1.000000000000000000, 0.000000000000000000, 0.000000000000000000 ) ) ;
#103 = EDGE_LOOP ( 'NONE', ( #92, #138, #128, #160 ) ) ;
#104 = ORIENTED_EDGE ( 'NONE', *, *, #109, .F. ) ;
#105 = CLOSED_SHELL ( 'NONE', ( #49, #27, #8, #99 ) ) ;
#106 = CYLINDRICAL_SURFACE ( 'NONE', #67, 15.00000000000000000 ) ;
#107 = APPROVAL_PERSON_ORGANIZATION ( #113, #30, #169 ) ;
#108 = CARTESIAN_POINT ( 'NONE',  ( -15.00000000000000000, 0.000000000000000000, 0.000000000000000000 ) ) ;
#109 = EDGE_CURVE ( 'NONE', #62, #74, #44, .T. ) ;
#110 = CARTESIAN_POINT ( 'NONE',  ( 0.000000000000000000, 0.000000000000000000, 0.000000000000000000 ) ) ;
#111 = PERSON_AND_ORGANIZATION_ROLE ( 'design_supplier' ) ;
#112 = LINE ( 'NONE', #4, #29 ) ;
#113 = PERSON_AND_ORGANIZATION ( #163, #158 ) ;
#114 = DIRECTION ( 'NONE',  ( 1.000000000000000000, 0.000000000000000000, -0.000000000000000000 ) ) ;
#115 = LOCAL_TIME ( 16, 41, 6.000000000000000000, #164 ) ;
#116 = DATE_AND_TIME ( #117, #65 ) ;
#117 = CALENDAR_DATE ( 2022, 6, 6 ) ;
#118 = DIRECTION ( 'NONE',  ( 0.000000000000000000, 0.000000000000000000, 1.000000000000000000 ) ) ;
#119 = DIRECTION ( 'NONE',  ( 1.000000000000000000, 0.000000000000000000, 0.000000000000000000 ) ) ;
#120 = CC_DESIGN_APPROVAL ( #30, ( #150 ) ) ;
#121 = DIRECTION ( 'NONE',  ( 1.000000000000000000, 0.000000000000000000, -0.000000000000000000 ) ) ;
#122 = PERSON_AND_ORGANIZATION ( #163, #158 ) ;
#123 = PERSON_AND_ORGANIZATION ( #163, #158 ) ;
#124 = LOCAL_TIME ( 16, 41, 6.000000000000000000, #94 ) ;
#125 = CALENDAR_DATE ( 2022, 6, 6 ) ;
#126 = PERSON_AND_ORGANIZATION ( #163, #158 ) ;
#127 = LOCAL_TIME ( 16, 41, 6.000000000000000000, #6 ) ;
#128 = ORIENTED_EDGE ( 'NONE', *, *, #54, .T. ) ;
#129 = CARTESIAN_POINT ( 'NONE',  ( 0.000000000000000000, 0.000000000000000000, 1.000000000000000000 ) ) ;
#130 = APPLICATION_PROTOCOL_DEFINITION ( 'international standard', 'config_control_design', 1994, #96 ) ;
#131 = EDGE_CURVE ( 'NONE', #161, #74, #68, .T. ) ;
#132 = CALENDAR_DATE ( 2022, 6, 6 ) ;
#133 = AXIS2_PLACEMENT_3D ( 'NONE', #61, #93, #52 ) ;
#134 = CARTESIAN_POINT ( 'NONE',  ( 15.00000000000000000, 1.836970198721029589E-15, 1.000000000000000000 ) ) ;
#135 = FACE_OUTER_BOUND ( 'NONE', #103, .T. ) ;
#136 = CARTESIAN_POINT ( 'NONE',  ( 0.000000000000000000, 0.000000000000000000, 0.000000000000000000 ) ) ;
#137 = PERSON_AND_ORGANIZATION_ROLE ( 'classification_officer' ) ;
#138 = ORIENTED_EDGE ( 'NONE', *, *, #131, .T. ) ;
#139 = ORIENTED_EDGE ( 'NONE', *, *, #21, .T. ) ;
#140 = EDGE_CURVE ( 'NONE', #79, #62, #112, .T. ) ;
#141 = SECURITY_CLASSIFICATION ( '', '', #98 ) ;
#142 = EDGE_LOOP ( 'NONE', ( #104, #155 ) ) ;
#143 = FACE_OUTER_BOUND ( 'NONE', #142, .T. ) ;
#144 = APPROVAL_STATUS ( 'not_yet_approved' ) ;
#145 = DIRECTION ( 'NONE',  ( -1.000000000000000000, 0.000000000000000000, 0.000000000000000000 ) ) ;
#146 = CC_DESIGN_PERSON_AND_ORGANIZATION_ASSIGNMENT ( #91, #137, ( #141 ) ) ;
#147 = AXIS2_PLACEMENT_3D ( 'NONE', #110, #84, #15 ) ;
#148 =( LENGTH_UNIT ( ) NAMED_UNIT ( * ) SI_UNIT ( .MILLI., .METRE. ) );
#149 = APPROVAL_ROLE ( '' ) ;
#150 = PRODUCT_DEFINITION_FORMATION_WITH_SPECIFIED_SOURCE ( 'ANY', '', #28, .NOT_KNOWN. ) ;
#151 = CC_DESIGN_APPROVAL ( #51, ( #141 ) ) ;
#152 = DIRECTION ( 'NONE',  ( 0.000000000000000000, 0.000000000000000000, 1.000000000000000000 ) ) ;
#153 = CARTESIAN_POINT ( 'NONE',  ( 0.000000000000000000, 0.000000000000000000, 0.000000000000000000 ) ) ;
#154 = PLANE ( 'NONE',  #46 ) ;
#155 = ORIENTED_EDGE ( 'NONE', *, *, #54, .F. ) ;
#156 = DIRECTION ( 'NONE',  ( 0.000000000000000000, 0.000000000000000000, 1.000000000000000000 ) ) ;
#157 = DIRECTION ( 'NONE',  ( -1.000000000000000000, 0.000000000000000000, 0.000000000000000000 ) ) ;
#158 = ORGANIZATION ( 'UNSPECIFIED', 'UNSPECIFIED', '' ) ;
#159 = CARTESIAN_POINT ( 'NONE',  ( 0.000000000000000000, 0.000000000000000000, 1.000000000000000000 ) ) ;
#160 = ORIENTED_EDGE ( 'NONE', *, *, #140, .F. ) ;
#161 = VERTEX_POINT ( 'NONE', #66 ) ;
#162 = PRODUCT_DEFINITION_SHAPE ( 'NONE', 'NONE',  #1 ) ;
#163 = PERSON ( 'UNSPECIFIED', 'UNSPECIFIED', 'UNSPECIFIED', ('UNSPECIFIED'), ('UNSPECIFIED'), ('UNSPECIFIED') ) ;
#164 = COORDINATED_UNIVERSAL_TIME_OFFSET ( 5, 0, .BEHIND. ) ;
#165 = PERSON_AND_ORGANIZATION ( #163, #158 ) ;
#166 = APPROVAL_PERSON_ORGANIZATION ( #126, #51, #75 ) ;
#167 = DIRECTION ( 'NONE',  ( -0.000000000000000000, -0.000000000000000000, -1.000000000000000000 ) ) ;
#168 = UNCERTAINTY_MEASURE_WITH_UNIT (LENGTH_MEASURE( 1.000000000000000082E-05 ), #148, 'distance_accuracy_value', 'NONE');
#169 = APPROVAL_ROLE ( '' ) ;
#170 = APPROVAL ( #35, 'UNSPECIFIED' ) ;
#171 = CIRCLE ( 'NONE', #175, 15.00000000000000000 ) ;
#172 = ADVANCED_BREP_SHAPE_REPRESENTATION ( 'Web Model 20464_20528', ( #53, #33 ), #11 ) ;
#173 = CC_DESIGN_PERSON_AND_ORGANIZATION_ASSIGNMENT ( #122, #5, ( #150 ) ) ;
#174 = FACE_OUTER_BOUND ( 'NONE', #60, .T. ) ;
#175 = AXIS2_PLACEMENT_3D ( 'NONE', #159, #118, #81 ) ;
ENDSEC;
END-ISO-10303-21;
