ISO-10303-21;
HEADER;
FILE_DESCRIPTION (( 'STEP AP203' ),
    '1' );
FILE_NAME ('Web Model 37128MX_15770.step',
    '2020-10-19T15:43:04',
    ( '' ),
    ( '' ),
    'SwSTEP 2.0',
    'SolidWorks 2018',
    '' );
FILE_SCHEMA (( 'CONFIG_CONTROL_DESIGN' ));
ENDSEC;

DATA;
#1 = ORIENTED_EDGE ( 'NONE', *, *, #152, .F. ) ;
#2 = CARTESIAN_POINT ( 'NONE',  ( 12.50000000000000533, 12.49999999999999822, 3.000000000000000000 ) ) ;
#3 = PLANE ( 'NONE',  #194 ) ;
#4 = PRODUCT_RELATED_PRODUCT_CATEGORY ( 'detail', '', ( #221 ) ) ;
#5 = DIRECTION ( 'NONE',  ( 0.0000000000000000000, 0.0000000000000000000, -1.000000000000000000 ) ) ;
#6 = CC_DESIGN_APPROVAL ( #200, ( #113 ) ) ;
#7 = ADVANCED_FACE ( 'NONE', ( #211 ), #3, .F. ) ;
#8 = APPLICATION_PROTOCOL_DEFINITION ( 'international standard', 'config_control_design', 1994, #22 ) ;
#9 = VECTOR ( 'NONE', #71, 1000.000000000000000 ) ;
#10 = ORIENTED_EDGE ( 'NONE', *, *, #63, .F. ) ;
#11 = LINE ( 'NONE', #105, #145 ) ;
#12 =( GEOMETRIC_REPRESENTATION_CONTEXT ( 3 ) GLOBAL_UNCERTAINTY_ASSIGNED_CONTEXT ( ( #43 ) ) GLOBAL_UNIT_ASSIGNED_CONTEXT ( ( #50, #104, #121 ) ) REPRESENTATION_CONTEXT ( 'NONE', 'WORKASPACE' ) );
#13 = CARTESIAN_POINT ( 'NONE',  ( 12.50000000000000533, -12.50000000000000178, 3.000000000000000000 ) ) ;
#14 = ORIENTED_EDGE ( 'NONE', *, *, #193, .T. ) ;
#15 = DIRECTION ( 'NONE',  ( 0.0000000000000000000, 0.0000000000000000000, 1.000000000000000000 ) ) ;
#16 = CARTESIAN_POINT ( 'NONE',  ( -12.49999999999999467, 12.49999999999999467, 3.000000000000000000 ) ) ;
#17 = PLANE ( 'NONE',  #44 ) ;
#18 = ORIENTED_EDGE ( 'NONE', *, *, #168, .T. ) ;
#19 = AXIS2_PLACEMENT_3D ( 'NONE', #119, #181, #91 ) ;
#20 = EDGE_LOOP ( 'NONE', ( #227, #54, #61, #120 ) ) ;
#21 = CC_DESIGN_PERSON_AND_ORGANIZATION_ASSIGNMENT ( #157, #59, ( #186 ) ) ;
#22 = APPLICATION_CONTEXT ( 'configuration controlled 3d designs of mechanical parts and assemblies' ) ;
#23 = APPROVAL_STATUS ( 'not_yet_approved' ) ;
#24 = ADVANCED_BREP_SHAPE_REPRESENTATION ( 'Web Model 37128MX_15770', ( #164, #19 ), #12 ) ;
#25 = PERSON_AND_ORGANIZATION ( #56, #34 ) ;
#26 = VECTOR ( 'NONE', #233, 1000.000000000000000 ) ;
#27 = CALENDAR_DATE ( 2020, 19, 10 ) ;
#28 = VECTOR ( 'NONE', #177, 1000.000000000000000 ) ;
#29 = ORIENTED_EDGE ( 'NONE', *, *, #140, .T. ) ;
#30 = DATE_AND_TIME ( #27, #101 ) ;
#31 = ADVANCED_FACE ( 'NONE', ( #154 ), #129, .F. ) ;
#32 = CC_DESIGN_PERSON_AND_ORGANIZATION_ASSIGNMENT ( #84, #74, ( #186 ) ) ;
#33 = CARTESIAN_POINT ( 'NONE',  ( 12.50000000000000533, -12.50000000000000178, 3.000000000000000000 ) ) ;
#34 = ORGANIZATION ( 'UNSPECIFIED', 'UNSPECIFIED', '' ) ;
#35 = CALENDAR_DATE ( 2020, 19, 10 ) ;
#36 = LINE ( 'NONE', #118, #126 ) ;
#37 = EDGE_LOOP ( 'NONE', ( #131, #127, #196, #189 ) ) ;
#38 = CALENDAR_DATE ( 2020, 19, 10 ) ;
#39 = CARTESIAN_POINT ( 'NONE',  ( 12.50000000000000533, -12.50000000000000178, -3.000000000000000000 ) ) ;
#40 = APPROVAL_STATUS ( 'not_yet_approved' ) ;
#41 = AXIS2_PLACEMENT_3D ( 'NONE', #13, #86, #15 ) ;
#42 = APPROVAL_PERSON_ORGANIZATION ( #150, #88, #210 ) ;
#43 = UNCERTAINTY_MEASURE_WITH_UNIT (LENGTH_MEASURE( 1.000000000000000082E-05 ), #50, 'distance_accuracy_value', 'NONE');
#44 = AXIS2_PLACEMENT_3D ( 'NONE', #202, #87, #198 ) ;
#45 = ORIENTED_EDGE ( 'NONE', *, *, #140, .F. ) ;
#46 = CARTESIAN_POINT ( 'NONE',  ( 12.50000000000000533, 12.49999999999999822, 3.000000000000000000 ) ) ;
#47 = CARTESIAN_POINT ( 'NONE',  ( -12.49999999999999467, -12.50000000000000533, 3.000000000000000000 ) ) ;
#48 = DIRECTION ( 'NONE',  ( 0.0000000000000000000, -0.0000000000000000000, 1.000000000000000000 ) ) ;
#49 = VECTOR ( 'NONE', #85, 1000.000000000000000 ) ;
#50 =( LENGTH_UNIT ( ) NAMED_UNIT ( * ) SI_UNIT ( .MILLI., .METRE. ) );
#51 = APPLICATION_PROTOCOL_DEFINITION ( 'international standard', 'config_control_design', 1994, #163 ) ;
#52 = VERTEX_POINT ( 'NONE', #39 ) ;
#53 = EDGE_CURVE ( 'NONE', #52, #83, #98, .T. ) ;
#54 = ORIENTED_EDGE ( 'NONE', *, *, #168, .F. ) ;
#55 = VECTOR ( 'NONE', #66, 1000.000000000000000 ) ;
#56 = PERSON ( 'UNSPECIFIED', 'UNSPECIFIED', 'UNSPECIFIED', ('UNSPECIFIED'), ('UNSPECIFIED'), ('UNSPECIFIED') ) ;
#57 = SECURITY_CLASSIFICATION ( '', '', #76 ) ;
#58 = CARTESIAN_POINT ( 'NONE',  ( 12.50000000000000533, -12.50000000000000178, -3.000000000000000000 ) ) ;
#59 = PERSON_AND_ORGANIZATION_ROLE ( 'creator' ) ;
#60 = MECHANICAL_CONTEXT ( 'NONE', #163, 'mechanical' ) ;
#61 = ORIENTED_EDGE ( 'NONE', *, *, #205, .F. ) ;
#62 = LINE ( 'NONE', #46, #199 ) ;
#63 = EDGE_CURVE ( 'NONE', #124, #52, #206, .T. ) ;
#64 = LOCAL_TIME ( 11, 43, 4.000000000000000000, #197 ) ;
#65 = CARTESIAN_POINT ( 'NONE',  ( 12.50000000000000533, -12.50000000000000178, 3.000000000000000000 ) ) ;
#66 = DIRECTION ( 'NONE',  ( -0.0000000000000000000, -0.0000000000000000000, -1.000000000000000000 ) ) ;
#67 = CARTESIAN_POINT ( 'NONE',  ( -12.49999999999999467, -12.50000000000000533, 3.000000000000000000 ) ) ;
#68 = DIRECTION ( 'NONE',  ( -0.0000000000000000000, -1.000000000000000000, -0.0000000000000000000 ) ) ;
#69 = ORIENTED_EDGE ( 'NONE', *, *, #205, .T. ) ;
#70 = VECTOR ( 'NONE', #137, 1000.000000000000000 ) ;
#71 = DIRECTION ( 'NONE',  ( 0.0000000000000000000, 1.000000000000000000, 0.0000000000000000000 ) ) ;
#72 = ORIENTED_EDGE ( 'NONE', *, *, #152, .T. ) ;
#73 = DIRECTION ( 'NONE',  ( 1.000000000000000000, 0.0000000000000000000, 0.0000000000000000000 ) ) ;
#74 = PERSON_AND_ORGANIZATION_ROLE ( 'design_supplier' ) ;
#75 = APPROVAL_DATE_TIME ( #167, #88 ) ;
#76 = SECURITY_CLASSIFICATION_LEVEL ( 'unclassified' ) ;
#77 = ORIENTED_EDGE ( 'NONE', *, *, #182, .F. ) ;
#78 = AXIS2_PLACEMENT_3D ( 'NONE', #203, #219, #100 ) ;
#79 = FACE_OUTER_BOUND ( 'NONE', #37, .T. ) ;
#80 = DESIGN_CONTEXT ( 'detailed design', #22, 'design' ) ;
#81 = PLANE ( 'NONE',  #231 ) ;
#82 = PLANE ( 'NONE',  #41 ) ;
#83 = VERTEX_POINT ( 'NONE', #187 ) ;
#84 = PERSON_AND_ORGANIZATION ( #56, #34 ) ;
#85 = DIRECTION ( 'NONE',  ( -0.0000000000000000000, -0.0000000000000000000, -1.000000000000000000 ) ) ;
#86 = DIRECTION ( 'NONE',  ( -1.000000000000000000, 0.0000000000000000000, 0.0000000000000000000 ) ) ;
#87 = DIRECTION ( 'NONE',  ( -1.387778780781445429E-16, 1.000000000000000000, 0.0000000000000000000 ) ) ;
#88 = APPROVAL ( #23, 'UNSPECIFIED' ) ;
#89 = EDGE_LOOP ( 'NONE', ( #14, #162, #218, #18 ) ) ;
#90 = COORDINATED_UNIVERSAL_TIME_OFFSET ( 5, 0, .BEHIND. ) ;
#91 = DIRECTION ( 'NONE',  ( 1.000000000000000000, 0.0000000000000000000, 0.0000000000000000000 ) ) ;
#92 = DIRECTION ( 'NONE',  ( 1.000000000000000000, 1.387778780781445676E-16, -0.0000000000000000000 ) ) ;
#93 = CARTESIAN_POINT ( 'NONE',  ( 12.50000000000000533, -12.50000000000000178, 3.000000000000000000 ) ) ;
#94 = ORIENTED_EDGE ( 'NONE', *, *, #109, .T. ) ;
#95 = VERTEX_POINT ( 'NONE', #208 ) ;
#96 = LINE ( 'NONE', #47, #49 ) ;
#97 = PERSON_AND_ORGANIZATION ( #56, #34 ) ;
#98 = LINE ( 'NONE', #185, #9 ) ;
#99 = ORIENTED_EDGE ( 'NONE', *, *, #123, .T. ) ;
#100 = DIRECTION ( 'NONE',  ( 1.000000000000000000, 0.0000000000000000000, -0.0000000000000000000 ) ) ;
#101 = LOCAL_TIME ( 11, 43, 4.000000000000000000, #110 ) ;
#102 = DIRECTION ( 'NONE',  ( -1.000000000000000000, -1.387778780781445676E-16, 0.0000000000000000000 ) ) ;
#103 = LINE ( 'NONE', #139, #28 ) ;
#104 =( NAMED_UNIT ( * ) PLANE_ANGLE_UNIT ( ) SI_UNIT ( $, .RADIAN. ) );
#105 = CARTESIAN_POINT ( 'NONE',  ( -12.49999999999999467, -12.50000000000000533, -3.000000000000000000 ) ) ;
#106 = CARTESIAN_POINT ( 'NONE',  ( -12.49999999999999467, -12.50000000000000533, 3.000000000000000000 ) ) ;
#107 = APPROVAL_DATE_TIME ( #172, #200 ) ;
#108 = PERSON_AND_ORGANIZATION_ROLE ( 'creator' ) ;
#109 = EDGE_CURVE ( 'NONE', #134, #142, #176, .T. ) ;
#110 = COORDINATED_UNIVERSAL_TIME_OFFSET ( 5, 0, .BEHIND. ) ;
#111 = EDGE_LOOP ( 'NONE', ( #1, #207, #165, #10 ) ) ;
#112 = EDGE_CURVE ( 'NONE', #149, #223, #220, .T. ) ;
#113 = PRODUCT_DEFINITION ( 'UNKNOWN', '', #186, #80 ) ;
#114 = ADVANCED_FACE ( 'NONE', ( #79 ), #17, .F. ) ;
#115 = VECTOR ( 'NONE', #117, 1000.000000000000000 ) ;
#116 = FACE_OUTER_BOUND ( 'NONE', #111, .T. ) ;
#117 = DIRECTION ( 'NONE',  ( -1.000000000000000000, -1.387778780781445676E-16, 0.0000000000000000000 ) ) ;
#118 = CARTESIAN_POINT ( 'NONE',  ( 12.50000000000000533, 12.49999999999999822, -3.000000000000000000 ) ) ;
#119 = CARTESIAN_POINT ( 'NONE',  ( 0.0000000000000000000, 0.0000000000000000000, 0.0000000000000000000 ) ) ;
#120 = ORIENTED_EDGE ( 'NONE', *, *, #135, .T. ) ;
#121 =( NAMED_UNIT ( * ) SI_UNIT ( $, .STERADIAN. ) SOLID_ANGLE_UNIT ( ) );
#122 = VECTOR ( 'NONE', #158, 1000.000000000000000 ) ;
#123 = EDGE_CURVE ( 'NONE', #95, #134, #171, .T. ) ;
#124 = VERTEX_POINT ( 'NONE', #225 ) ;
#125 = PERSON_AND_ORGANIZATION ( #56, #34 ) ;
#126 = VECTOR ( 'NONE', #102, 1000.000000000000000 ) ;
#127 = ORIENTED_EDGE ( 'NONE', *, *, #135, .F. ) ;
#128 = APPROVAL_ROLE ( '' ) ;
#129 = PLANE ( 'NONE',  #153 ) ;
#130 = CC_DESIGN_PERSON_AND_ORGANIZATION_ASSIGNMENT ( #97, #226, ( #221 ) ) ;
#131 = ORIENTED_EDGE ( 'NONE', *, *, #63, .T. ) ;
#132 = PERSON_AND_ORGANIZATION_ROLE ( 'classification_officer' ) ;
#133 = FACE_OUTER_BOUND ( 'NONE', #179, .T. ) ;
#134 = VERTEX_POINT ( 'NONE', #216 ) ;
#135 = EDGE_CURVE ( 'NONE', #223, #52, #151, .T. ) ;
#136 = CARTESIAN_POINT ( 'NONE',  ( 12.50000000000000533, 12.49999999999999822, 3.000000000000000000 ) ) ;
#137 = DIRECTION ( 'NONE',  ( -0.0000000000000000000, -1.000000000000000000, -0.0000000000000000000 ) ) ;
#139 = CARTESIAN_POINT ( 'NONE',  ( 12.50000000000000533, -12.50000000000000178, 3.000000000000000000 ) ) ;
#138 = PRODUCT_DEFINITION_SHAPE ( 'NONE', 'NONE',  #113 ) ;
#140 = EDGE_CURVE ( 'NONE', #134, #149, #166, .T. ) ;
#141 = CC_DESIGN_DATE_AND_TIME_ASSIGNMENT ( #30, #213, ( #57 ) ) ;
#142 = VERTEX_POINT ( 'NONE', #156 ) ;
#143 = COORDINATED_UNIVERSAL_TIME_OFFSET ( 5, 0, .BEHIND. ) ;
#144 = FACE_OUTER_BOUND ( 'NONE', #20, .T. ) ;
#145 = VECTOR ( 'NONE', #68, 1000.000000000000000 ) ;
#146 = DIRECTION ( 'NONE',  ( 1.387778780781445429E-16, -1.000000000000000000, 0.0000000000000000000 ) ) ;
#147 = DATE_TIME_ROLE ( 'creation_date' ) ;
#148 = ADVANCED_FACE ( 'NONE', ( #116 ), #234, .F. ) ;
#149 = VERTEX_POINT ( 'NONE', #67 ) ;
#150 = PERSON_AND_ORGANIZATION ( #56, #34 ) ;
#151 = LINE ( 'NONE', #33, #55 ) ;
#152 = EDGE_CURVE ( 'NONE', #142, #124, #11, .T. ) ;
#153 = AXIS2_PLACEMENT_3D ( 'NONE', #2, #146, #209 ) ;
#154 = FACE_OUTER_BOUND ( 'NONE', #89, .T. ) ;
#155 = CLOSED_SHELL ( 'NONE', ( #7, #114, #188, #31, #201, #148 ) ) ;
#156 = CARTESIAN_POINT ( 'NONE',  ( -12.49999999999999467, 12.49999999999999467, -3.000000000000000000 ) ) ;
#157 = PERSON_AND_ORGANIZATION ( #56, #34 ) ;
#158 = DIRECTION ( 'NONE',  ( -0.0000000000000000000, -0.0000000000000000000, -1.000000000000000000 ) ) ;
#159 = CARTESIAN_POINT ( 'NONE',  ( 0.0000000000000000000, 0.0000000000000000000, 3.000000000000000000 ) ) ;
#160 = CC_DESIGN_DATE_AND_TIME_ASSIGNMENT ( #228, #147, ( #113 ) ) ;
#161 = DIRECTION ( 'NONE',  ( -0.0000000000000000000, -0.0000000000000000000, -1.000000000000000000 ) ) ;
#162 = ORIENTED_EDGE ( 'NONE', *, *, #109, .F. ) ;
#163 = APPLICATION_CONTEXT ( 'configuration controlled 3d designs of mechanical parts and assemblies' ) ;
#164 = MANIFOLD_SOLID_BREP ( 'Boss-Extrude1', #155 ) ;
#165 = ORIENTED_EDGE ( 'NONE', *, *, #53, .F. ) ;
#166 = LINE ( 'NONE', #178, #70 ) ;
#167 = DATE_AND_TIME ( #38, #232 ) ;
#168 = EDGE_CURVE ( 'NONE', #95, #83, #62, .T. ) ;
#169 = CC_DESIGN_APPROVAL ( #214, ( #186 ) ) ;
#170 = APPROVAL_ROLE ( '' ) ;
#171 = LINE ( 'NONE', #136, #115 ) ;
#172 = DATE_AND_TIME ( #217, #222 ) ;
#173 = APPROVAL_PERSON_ORGANIZATION ( #25, #200, #128 ) ;
#174 = EDGE_LOOP ( 'NONE', ( #72, #77, #45, #94 ) ) ;
#175 = CALENDAR_DATE ( 2020, 19, 10 ) ;
#176 = LINE ( 'NONE', #16, #122 ) ;
#177 = DIRECTION ( 'NONE',  ( 0.0000000000000000000, 1.000000000000000000, 0.0000000000000000000 ) ) ;
#178 = CARTESIAN_POINT ( 'NONE',  ( -12.49999999999999467, -12.50000000000000533, 3.000000000000000000 ) ) ;
#179 = EDGE_LOOP ( 'NONE', ( #29, #195, #69, #99 ) ) ;
#180 = DATE_AND_TIME ( #35, #64 ) ;
#181 = DIRECTION ( 'NONE',  ( 0.0000000000000000000, 0.0000000000000000000, 1.000000000000000000 ) ) ;
#182 = EDGE_CURVE ( 'NONE', #149, #124, #96, .T. ) ;
#183 = CC_DESIGN_PERSON_AND_ORGANIZATION_ASSIGNMENT ( #229, #108, ( #113 ) ) ;
#184 = SHAPE_DEFINITION_REPRESENTATION ( #138, #24 ) ;
#185 = CARTESIAN_POINT ( 'NONE',  ( 12.50000000000000533, -12.50000000000000178, -3.000000000000000000 ) ) ;
#186 = PRODUCT_DEFINITION_FORMATION_WITH_SPECIFIED_SOURCE ( 'ANY', '', #221, .NOT_KNOWN. ) ;
#187 = CARTESIAN_POINT ( 'NONE',  ( 12.50000000000000533, 12.49999999999999822, -3.000000000000000000 ) ) ;
#188 = ADVANCED_FACE ( 'NONE', ( #144 ), #82, .F. ) ;
#189 = ORIENTED_EDGE ( 'NONE', *, *, #182, .T. ) ;
#190 = VECTOR ( 'NONE', #92, 1000.000000000000000 ) ;
#191 = APPROVAL_PERSON_ORGANIZATION ( #125, #214, #170 ) ;
#192 = CC_DESIGN_SECURITY_CLASSIFICATION ( #57, ( #186 ) ) ;
#193 = EDGE_CURVE ( 'NONE', #83, #142, #36, .T. ) ;
#194 = AXIS2_PLACEMENT_3D ( 'NONE', #106, #73, #5 ) ;
#195 = ORIENTED_EDGE ( 'NONE', *, *, #112, .T. ) ;
#196 = ORIENTED_EDGE ( 'NONE', *, *, #112, .F. ) ;
#197 = COORDINATED_UNIVERSAL_TIME_OFFSET ( 5, 0, .BEHIND. ) ;
#198 = DIRECTION ( 'NONE',  ( -1.000000000000000000, -1.387778780781445429E-16, 0.0000000000000000000 ) ) ;
#199 = VECTOR ( 'NONE', #161, 1000.000000000000000 ) ;
#200 = APPROVAL ( #224, 'UNSPECIFIED' ) ;
#201 = ADVANCED_FACE ( 'NONE', ( #133 ), #81, .T. ) ;
#202 = CARTESIAN_POINT ( 'NONE',  ( 12.50000000000000533, -12.50000000000000178, 3.000000000000000000 ) ) ;
#203 = CARTESIAN_POINT ( 'NONE',  ( 0.0000000000000000000, 0.0000000000000000000, -3.000000000000000000 ) ) ;
#204 = LOCAL_TIME ( 11, 43, 4.000000000000000000, #212 ) ;
#205 = EDGE_CURVE ( 'NONE', #223, #95, #103, .T. ) ;
#206 = LINE ( 'NONE', #58, #190 ) ;
#207 = ORIENTED_EDGE ( 'NONE', *, *, #193, .F. ) ;
#208 = CARTESIAN_POINT ( 'NONE',  ( 12.50000000000000533, 12.49999999999999822, 3.000000000000000000 ) ) ;
#209 = DIRECTION ( 'NONE',  ( 1.000000000000000000, 1.387778780781445429E-16, 0.0000000000000000000 ) ) ;
#210 = APPROVAL_ROLE ( '' ) ;
#211 = FACE_OUTER_BOUND ( 'NONE', #174, .T. ) ;
#212 = COORDINATED_UNIVERSAL_TIME_OFFSET ( 5, 0, .BEHIND. ) ;
#213 = DATE_TIME_ROLE ( 'classification_date' ) ;
#214 = APPROVAL ( #40, 'UNSPECIFIED' ) ;
#215 = APPROVAL_DATE_TIME ( #180, #214 ) ;
#216 = CARTESIAN_POINT ( 'NONE',  ( -12.49999999999999467, 12.49999999999999467, 3.000000000000000000 ) ) ;
#217 = CALENDAR_DATE ( 2020, 19, 10 ) ;
#218 = ORIENTED_EDGE ( 'NONE', *, *, #123, .F. ) ;
#219 = DIRECTION ( 'NONE',  ( 0.0000000000000000000, -0.0000000000000000000, 1.000000000000000000 ) ) ;
#220 = LINE ( 'NONE', #93, #26 ) ;
#221 = PRODUCT ( 'Web Model 37128MX_15770', 'Web Model 37128MX_15770', '', ( #60 ) ) ;
#222 = LOCAL_TIME ( 11, 43, 4.000000000000000000, #143 ) ;
#223 = VERTEX_POINT ( 'NONE', #65 ) ;
#224 = APPROVAL_STATUS ( 'not_yet_approved' ) ;
#225 = CARTESIAN_POINT ( 'NONE',  ( -12.49999999999999467, -12.50000000000000533, -3.000000000000000000 ) ) ;
#226 = PERSON_AND_ORGANIZATION_ROLE ( 'design_owner' ) ;
#227 = ORIENTED_EDGE ( 'NONE', *, *, #53, .T. ) ;
#228 = DATE_AND_TIME ( #175, #204 ) ;
#229 = PERSON_AND_ORGANIZATION ( #56, #34 ) ;
#230 = CC_DESIGN_APPROVAL ( #88, ( #57 ) ) ;
#231 = AXIS2_PLACEMENT_3D ( 'NONE', #159, #48, #236 ) ;
#232 = LOCAL_TIME ( 11, 43, 4.000000000000000000, #90 ) ;
#233 = DIRECTION ( 'NONE',  ( 1.000000000000000000, 1.387778780781445676E-16, -0.0000000000000000000 ) ) ;
#234 = PLANE ( 'NONE',  #78 ) ;
#235 = PERSON_AND_ORGANIZATION ( #56, #34 ) ;
#236 = DIRECTION ( 'NONE',  ( 1.000000000000000000, 0.0000000000000000000, -0.0000000000000000000 ) ) ;
#237 = CC_DESIGN_PERSON_AND_ORGANIZATION_ASSIGNMENT ( #235, #132, ( #57 ) ) ;
ENDSEC;
END-ISO-10303-21;
