ISO-10303-21;
HEADER;
FILE_DESCRIPTION (( 'STEP AP203' ),
    '1' );
FILE_NAME ('4333-E0W.STEP',
    '2015-06-17T20:47:36',
    ( 'admin' ),
    ( '' ),
    'SwSTEP 2.0',
    'SolidWorks 2014',
    '' );
FILE_SCHEMA (( 'CONFIG_CONTROL_DESIGN' ));
ENDSEC;

DATA;
#1 = CARTESIAN_POINT ( 'NONE',  ( 25.39999999999999900, 0.0000000000000000000, -1.258284906975881700 ) ) ;
#2 = ORIENTED_EDGE ( 'NONE', *, *, #235, .F. ) ;
#3 = DIRECTION ( 'NONE',  ( -1.000000000000000000, 0.0000000000000000000, 0.0000000000000000000 ) ) ;
#4 = ORIENTED_EDGE ( 'NONE', *, *, #146, .F. ) ;
#5 = DIRECTION ( 'NONE',  ( -1.000000000000000000, 0.0000000000000000000, 0.0000000000000000000 ) ) ;
#6 = DIRECTION ( 'NONE',  ( -0.0000000000000000000, -0.0000000000000000000, 1.000000000000000000 ) ) ;
#7 = DIRECTION ( 'NONE',  ( -0.0000000000000000000, -0.0000000000000000000, 1.000000000000000000 ) ) ;
#8 = AXIS2_PLACEMENT_3D ( 'NONE', #302, #284, #156 ) ;
#9 = COORDINATED_UNIVERSAL_TIME_OFFSET ( 5, 0, .BEHIND. ) ;
#10 = CC_DESIGN_DATE_AND_TIME_ASSIGNMENT ( #72, #88, ( #345 ) ) ;
#11 = ORIENTED_EDGE ( 'NONE', *, *, #260, .T. ) ;
#12 = CARTESIAN_POINT ( 'NONE',  ( 0.0000000000000000000, 25.16041553109969800, -1.578068562547205300 ) ) ;
#13 = ORIENTED_EDGE ( 'NONE', *, *, #117, .F. ) ;
#14 = LINE ( 'NONE', #155, #327 ) ;
#15 = PERSON_AND_ORGANIZATION_ROLE ( 'creator' ) ;
#16 = LOCAL_TIME ( 16, 47, 36.00000000000000000, #9 ) ;
#17 = DIRECTION ( 'NONE',  ( 1.000000000000000000, 0.0000000000000000000, 0.0000000000000000000 ) ) ;
#18 = SECURITY_CLASSIFICATION_LEVEL ( 'unclassified' ) ;
#19 = CARTESIAN_POINT ( 'NONE',  ( 0.0000000000000000000, 0.0000000000000000000, -1.578068562547205300 ) ) ;
#20 = ADVANCED_FACE ( 'NONE', ( #233 ), #113, .T. ) ;
#21 =( NAMED_UNIT ( * ) PLANE_ANGLE_UNIT ( ) SI_UNIT ( $, .RADIAN. ) );
#22 = EDGE_LOOP ( 'NONE', ( #274, #43, #102, #286, #136 ) ) ;
#23 = ORIENTED_EDGE ( 'NONE', *, *, #235, .T. ) ;
#24 = DIRECTION ( 'NONE',  ( 0.0000000000000000000, 0.0000000000000000000, -1.000000000000000000 ) ) ;
#25 = CIRCLE ( 'NONE', #86, 25.16041553109971600 ) ;
#26 = CC_DESIGN_PERSON_AND_ORGANIZATION_ASSIGNMENT ( #266, #245, ( #362 ) ) ;
#27 = PERSON_AND_ORGANIZATION ( #239, #329 ) ;
#28 = LINE ( 'NONE', #183, #108 ) ;
#29 = CYLINDRICAL_SURFACE ( 'NONE', #339, 25.39999999999999900 ) ;
#30 = DIRECTION ( 'NONE',  ( 0.0000000000000000000, 0.0000000000000000000, -1.000000000000000000 ) ) ;
#31 = EDGE_CURVE ( 'NONE', #205, #48, #25, .T. ) ;
#32 = CARTESIAN_POINT ( 'NONE',  ( 25.16041553109971600, 0.0000000000000000000, -1.578068562547205300 ) ) ;
#33 = DIRECTION ( 'NONE',  ( -1.224646799147353200E-016, -1.000000000000000000, 0.0000000000000000000 ) ) ;
#34 = CONICAL_SURFACE ( 'NONE', #65, 25.16041553109975100, 0.6429940278101008400 ) ;
#35 = DIRECTION ( 'NONE',  ( 1.000000000000000000, 0.0000000000000000000, 0.0000000000000000000 ) ) ;
#36 = DIRECTION ( 'NONE',  ( -1.000000000000000000, 0.0000000000000000000, 0.0000000000000000000 ) ) ;
#37 = APPROVAL_STATUS ( 'not_yet_approved' ) ;
#38 = FACE_OUTER_BOUND ( 'NONE', #194, .T. ) ;
#39 = APPROVAL_STATUS ( 'not_yet_approved' ) ;
#40 = PERSON_AND_ORGANIZATION_ROLE ( 'design_owner' ) ;
#41 = CC_DESIGN_APPROVAL ( #137, ( #345 ) ) ;
#42 = AXIS2_PLACEMENT_3D ( 'NONE', #224, #230, #167 ) ;
#43 = ORIENTED_EDGE ( 'NONE', *, *, #153, .F. ) ;
#44 = CARTESIAN_POINT ( 'NONE',  ( 25.39999999999999900, 0.0000000000000000000, 5.150000000000000400 ) ) ;
#45 = VERTEX_POINT ( 'NONE', #278 ) ;
#46 = FACE_OUTER_BOUND ( 'NONE', #177, .T. ) ;
#47 = CARTESIAN_POINT ( 'NONE',  ( 0.0000000000000000000, 0.0000000000000000000, -1.258284906975881700 ) ) ;
#48 = VERTEX_POINT ( 'NONE', #63 ) ;
#49 = ADVANCED_FACE ( 'NONE', ( #292 ), #198, .T. ) ;
#50 = ORIENTED_EDGE ( 'NONE', *, *, #219, .F. ) ;
#51 = AXIS2_PLACEMENT_3D ( 'NONE', #275, #60, #33 ) ;
#52 = CARTESIAN_POINT ( 'NONE',  ( 25.16041553109975100, 3.081262234537866600E-015, 1.578068562547191300 ) ) ;
#53 = DIRECTION ( 'NONE',  ( -0.0000000000000000000, -0.0000000000000000000, 1.000000000000000000 ) ) ;
#54 = CYLINDRICAL_SURFACE ( 'NONE', #166, 25.39999999999999900 ) ;
#55 = CARTESIAN_POINT ( 'NONE',  ( 0.0000000000000000000, 0.0000000000000000000, 1.578068562547191300 ) ) ;
#56 = AXIS2_PLACEMENT_3D ( 'NONE', #256, #3, #287 ) ;
#57 = DIRECTION ( 'NONE',  ( 0.0000000000000000000, 1.000000000000000000, 0.0000000000000000000 ) ) ;
#58 = APPROVAL ( #37, 'UNSPECIFIED' ) ;
#59 = ORIENTED_EDGE ( 'NONE', *, *, #185, .F. ) ;
#60 = DIRECTION ( 'NONE',  ( -1.000000000000000000, 1.224646799147353200E-016, 0.0000000000000000000 ) ) ;
#61 = AXIS2_PLACEMENT_3D ( 'NONE', #365, #131, #95 ) ;
#62 = FACE_OUTER_BOUND ( 'NONE', #138, .T. ) ;
#63 = CARTESIAN_POINT ( 'NONE',  ( -3.081262234537859500E-015, -25.16041553109969800, -1.578068562547205300 ) ) ;
#64 = ORIENTED_EDGE ( 'NONE', *, *, #130, .F. ) ;
#65 = AXIS2_PLACEMENT_3D ( 'NONE', #154, #319, #341 ) ;
#66 = MANIFOLD_SOLID_BREP ( '4333-001-1-solid1', #351 ) ;
#67 = VECTOR ( 'NONE', #269, 1000.000000000000100 ) ;
#68 = CARTESIAN_POINT ( 'NONE',  ( 0.0000000000000000000, 0.0000000000000000000, -1.578068562547205300 ) ) ;
#69 = VERTEX_POINT ( 'NONE', #267 ) ;
#70 = DIRECTION ( 'NONE',  ( -1.224646799147353200E-016, -1.000000000000000000, 0.0000000000000000000 ) ) ;
#71 = ADVANCED_FACE ( 'NONE', ( #38 ), #116, .T. ) ;
#72 = DATE_AND_TIME ( #366, #295 ) ;
#73 = PERSON_AND_ORGANIZATION ( #239, #329 ) ;
#74 = CC_DESIGN_SECURITY_CLASSIFICATION ( #345, ( #362 ) ) ;
#75 = AXIS2_PLACEMENT_3D ( 'NONE', #201, #254, #98 ) ;
#76 = PERSON_AND_ORGANIZATION ( #239, #329 ) ;
#77 = DIRECTION ( 'NONE',  ( -0.0000000000000000000, -0.0000000000000000000, 1.000000000000000000 ) ) ;
#78 = PRODUCT_DEFINITION ( 'UNKNOWN', '', #362, #261 ) ;
#79 = CARTESIAN_POINT ( 'NONE',  ( 0.0000000000000000000, 5.535403532146037100E-015, 5.150000000000002100 ) ) ;
#80 = CARTESIAN_POINT ( 'NONE',  ( -25.16041553109975100, 0.0000000000000000000, 1.578068562547191300 ) ) ;
#81 = ORIENTED_EDGE ( 'NONE', *, *, #264, .T. ) ;
#82 = DIRECTION ( 'NONE',  ( 1.000000000000000000, 0.0000000000000000000, 0.0000000000000000000 ) ) ;
#83 = AXIS2_PLACEMENT_3D ( 'NONE', #200, #276, #57 ) ;
#84 = EDGE_LOOP ( 'NONE', ( #13, #104, #124, #253 ) ) ;
#85 = LOCAL_TIME ( 16, 47, 36.00000000000000000, #105 ) ;
#86 = AXIS2_PLACEMENT_3D ( 'NONE', #19, #242, #363 ) ;
#87 = CARTESIAN_POINT ( 'NONE',  ( 0.0000000000000000000, 0.0000000000000000000, -85.25000000000000000 ) ) ;
#88 = DATE_TIME_ROLE ( 'classification_date' ) ;
#89 = ORIENTED_EDGE ( 'NONE', *, *, #297, .F. ) ;
#90 = CONICAL_SURFACE ( 'NONE', #149, 25.39999999999999900, 0.6429940278101424800 ) ;
#91 = CIRCLE ( 'NONE', #240, 90.40000000000002000 ) ;
#92 =( NAMED_UNIT ( * ) SI_UNIT ( $, .STERADIAN. ) SOLID_ANGLE_UNIT ( ) );
#93 = CARTESIAN_POINT ( 'NONE',  ( 0.0000000000000000000, 0.0000000000000000000, -1.578068562547205300 ) ) ;
#94 = ORIENTED_EDGE ( 'NONE', *, *, #146, .T. ) ;
#95 = DIRECTION ( 'NONE',  ( 0.0000000000000000000, 1.000000000000000000, 0.0000000000000000000 ) ) ;
#96 = SPHERICAL_SURFACE ( 'NONE', #75, 90.40000000000000600 ) ;
#97 = CIRCLE ( 'NONE', #285, 25.16041553109971600 ) ;
#98 = DIRECTION ( 'NONE',  ( 0.0000000000000000000, 1.000000000000000000, 0.0000000000000000000 ) ) ;
#99 = DIRECTION ( 'NONE',  ( 0.5995942580915358800, 0.0000000000000000000, 0.8003041457243993400 ) ) ;
#100 = CARTESIAN_POINT ( 'NONE',  ( -25.39999999999999900, 3.110602869834276900E-015, -1.258284906975881700 ) ) ;
#101 = DIRECTION ( 'NONE',  ( -0.0000000000000000000, -0.0000000000000000000, 1.000000000000000000 ) ) ;
#102 = ORIENTED_EDGE ( 'NONE', *, *, #125, .F. ) ;
#103 = AXIS2_PLACEMENT_3D ( 'NONE', #93, #30, #35 ) ;
#104 = ORIENTED_EDGE ( 'NONE', *, *, #217, .T. ) ;
#105 = COORDINATED_UNIVERSAL_TIME_OFFSET ( 5, 0, .BEHIND. ) ;
#106 = CARTESIAN_POINT ( 'NONE',  ( 25.39999999999999900, 0.0000000000000000000, 1.258284906975909400 ) ) ;
#107 = ADVANCED_FACE ( 'NONE', ( #121 ), #34, .T. ) ;
#108 = VECTOR ( 'NONE', #182, 1000.000000000000000 ) ;
#109 = DIRECTION ( 'NONE',  ( 0.0000000000000000000, 0.0000000000000000000, -1.000000000000000000 ) ) ;
#110 = AXIS2_PLACEMENT_3D ( 'NONE', #87, #271, #70 ) ;
#111 = ORIENTED_EDGE ( 'NONE', *, *, #361, .F. ) ;
#112 = DIRECTION ( 'NONE',  ( 1.000000000000000000, 0.0000000000000000000, 0.0000000000000000000 ) ) ;
#113 = SPHERICAL_SURFACE ( 'NONE', #83, 90.40000000000000600 ) ;
#114 = DIRECTION ( 'NONE',  ( 0.0000000000000000000, 0.0000000000000000000, -1.000000000000000000 ) ) ;
#115 = APPROVAL_PERSON_ORGANIZATION ( #27, #137, #340 ) ;
#116 = SPHERICAL_SURFACE ( 'NONE', #56, 90.40000000000000600 ) ;
#117 = EDGE_CURVE ( 'NONE', #308, #48, #289, .T. ) ;
#118 = CIRCLE ( 'NONE', #357, 25.39999999999999900 ) ;
#119 = SHAPE_DEFINITION_REPRESENTATION ( #320, #246 ) ;
#120 = EDGE_CURVE ( 'NONE', #282, #318, #314, .T. ) ;
#121 = FACE_OUTER_BOUND ( 'NONE', #280, .T. ) ;
#122 = DIRECTION ( 'NONE',  ( -0.0000000000000000000, -0.0000000000000000000, 1.000000000000000000 ) ) ;
#123 = DIRECTION ( 'NONE',  ( 1.000000000000000000, -0.0000000000000000000, 0.0000000000000000000 ) ) ;
#124 = ORIENTED_EDGE ( 'NONE', *, *, #219, .T. ) ;
#125 = EDGE_CURVE ( 'NONE', #318, #268, #206, .T. ) ;
#126 = CARTESIAN_POINT ( 'NONE',  ( -25.16041553109976500, 0.0000000000000000000, 1.578068562547191300 ) ) ;
#127 = DIRECTION ( 'NONE',  ( -1.000000000000000000, 0.0000000000000000000, 0.0000000000000000000 ) ) ;
#128 = CIRCLE ( 'NONE', #8, 25.16041553109976500 ) ;
#129 = CIRCLE ( 'NONE', #103, 25.16041553109971600 ) ;
#130 = EDGE_CURVE ( 'NONE', #346, #298, #322, .T. ) ;
#131 = DIRECTION ( 'NONE',  ( -1.000000000000000000, 0.0000000000000000000, 0.0000000000000000000 ) ) ;
#132 = DIRECTION ( 'NONE',  ( -1.000000000000000000, 0.0000000000000000000, 0.0000000000000000000 ) ) ;
#133 = CARTESIAN_POINT ( 'NONE',  ( 25.39999999999999900, 0.0000000000000000000, -1.258284906975881700 ) ) ;
#134 = ORIENTED_EDGE ( 'NONE', *, *, #153, .T. ) ;
#135 = PERSON_AND_ORGANIZATION ( #239, #329 ) ;
#136 = ORIENTED_EDGE ( 'NONE', *, *, #264, .F. ) ;
#137 = APPROVAL ( #169, 'UNSPECIFIED' ) ;
#138 = EDGE_LOOP ( 'NONE', ( #355, #244, #321, #4 ) ) ;
#139 = APPROVAL_DATE_TIME ( #163, #137 ) ;
#140 = ORIENTED_EDGE ( 'NONE', *, *, #147, .T. ) ;
#141 = ORIENTED_EDGE ( 'NONE', *, *, #342, .F. ) ;
#142 = APPLICATION_CONTEXT ( 'configuration controlled 3d designs of mechanical parts and assemblies' ) ;
#143 = DIRECTION ( 'NONE',  ( -0.5995942580915358800, 7.342911889589314700E-017, 0.8003041457243993400 ) ) ;
#144 = EDGE_CURVE ( 'NONE', #45, #290, #249, .T. ) ;
#145 = DIRECTION ( 'NONE',  ( -1.000000000000000000, 0.0000000000000000000, 0.0000000000000000000 ) ) ;
#146 = EDGE_CURVE ( 'NONE', #298, #290, #333, .T. ) ;
#147 = EDGE_CURVE ( 'NONE', #205, #298, #188, .T. ) ;
#148 = ORIENTED_EDGE ( 'NONE', *, *, #225, .F. ) ;
#149 = AXIS2_PLACEMENT_3D ( 'NONE', #243, #101, #112 ) ;
#150 = CARTESIAN_POINT ( 'NONE',  ( 0.0000000000000000000, 0.0000000000000000000, 85.25000000000000000 ) ) ;
#151 = DIRECTION ( 'NONE',  ( 0.5995942580915024600, 7.342911889588904200E-017, -0.8003041457244244300 ) ) ;
#152 = DIRECTION ( 'NONE',  ( -0.0000000000000000000, -0.0000000000000000000, 1.000000000000000000 ) ) ;
#153 = EDGE_CURVE ( 'NONE', #268, #45, #128, .T. ) ;
#154 = CARTESIAN_POINT ( 'NONE',  ( 0.0000000000000000000, 0.0000000000000000000, 1.578068562547191300 ) ) ;
#155 = CARTESIAN_POINT ( 'NONE',  ( -25.39999999999999900, 3.110602869834276900E-015, -1.258284906975881700 ) ) ;
#156 = DIRECTION ( 'NONE',  ( -1.000000000000000000, 0.0000000000000000000, 0.0000000000000000000 ) ) ;
#157 = ORIENTED_EDGE ( 'NONE', *, *, #225, .T. ) ;
#158 = ADVANCED_FACE ( 'NONE', ( #164 ), #96, .T. ) ;
#159 = CIRCLE ( 'NONE', #247, 25.16041553109971600 ) ;
#160 = VERTEX_POINT ( 'NONE', #12 ) ;
#161 = CARTESIAN_POINT ( 'NONE',  ( 0.0000000000000000000, 0.0000000000000000000, -1.258284906975881700 ) ) ;
#162 = ORIENTED_EDGE ( 'NONE', *, *, #117, .T. ) ;
#163 = DATE_AND_TIME ( #176, #187 ) ;
#164 = FACE_OUTER_BOUND ( 'NONE', #84, .T. ) ;
#165 = EDGE_CURVE ( 'NONE', #318, #338, #310, .T. ) ;
#166 = AXIS2_PLACEMENT_3D ( 'NONE', #172, #354, #180 ) ;
#167 = DIRECTION ( 'NONE',  ( 1.000000000000000000, 0.0000000000000000000, 0.0000000000000000000 ) ) ;
#168 = PERSON_AND_ORGANIZATION ( #239, #329 ) ;
#169 = APPROVAL_STATUS ( 'not_yet_approved' ) ;
#170 = DATE_AND_TIME ( #343, #85 ) ;
#171 = CARTESIAN_POINT ( 'NONE',  ( 0.0000000000000000000, 0.0000000000000000000, 1.578068562547191300 ) ) ;
#172 = CARTESIAN_POINT ( 'NONE',  ( 0.0000000000000000000, 0.0000000000000000000, 5.150000000000000400 ) ) ;
#173 = EDGE_LOOP ( 'NONE', ( #59, #2, #221, #140, #64 ) ) ;
#174 = AXIS2_PLACEMENT_3D ( 'NONE', #47, #152, #17 ) ;
#175 = UNCERTAINTY_MEASURE_WITH_UNIT (LENGTH_MEASURE( 1.000000000000000100E-005 ), #229, 'distance_accuracy_value', 'NONE');
#176 = CALENDAR_DATE ( 2015, 17, 6 ) ;
#177 = EDGE_LOOP ( 'NONE', ( #111, #358, #94, #81 ) ) ;
#178 = ORIENTED_EDGE ( 'NONE', *, *, #144, .T. ) ;
#179 = ORIENTED_EDGE ( 'NONE', *, *, #342, .T. ) ;
#180 = DIRECTION ( 'NONE',  ( 1.000000000000000000, 0.0000000000000000000, 0.0000000000000000000 ) ) ;
#181 = ORIENTED_EDGE ( 'NONE', *, *, #185, .T. ) ;
#182 = DIRECTION ( 'NONE',  ( -0.0000000000000000000, -0.0000000000000000000, 1.000000000000000000 ) ) ;
#183 = CARTESIAN_POINT ( 'NONE',  ( -25.39999999999999900, 3.110602869834276900E-015, 5.150000000000000400 ) ) ;
#184 = ORIENTED_EDGE ( 'NONE', *, *, #309, .F. ) ;
#185 = EDGE_CURVE ( 'NONE', #69, #346, #14, .T. ) ;
#186 = APPLICATION_CONTEXT ( 'configuration controlled 3d designs of mechanical parts and assemblies' ) ;
#187 = LOCAL_TIME ( 16, 47, 36.00000000000000000, #283 ) ;
#188 = LINE ( 'NONE', #133, #214 ) ;
#189 = CARTESIAN_POINT ( 'NONE',  ( 0.0000000000000000000, 0.0000000000000000000, 1.258284906975909400 ) ) ;
#190 = ADVANCED_FACE ( 'NONE', ( #203 ), #241, .T. ) ;
#191 = AXIS2_PLACEMENT_3D ( 'NONE', #55, #7, #5 ) ;
#192 = CC_DESIGN_DATE_AND_TIME_ASSIGNMENT ( #204, #360, ( #78 ) ) ;
#193 = PRODUCT ( '4333-E0W', '4333-E0W', '', ( #218 ) ) ;
#194 = EDGE_LOOP ( 'NONE', ( #263, #162, #23, #179 ) ) ;
#195 = CIRCLE ( 'NONE', #364, 25.16041553109976500 ) ;
#196 = ORIENTED_EDGE ( 'NONE', *, *, #260, .F. ) ;
#197 = DIRECTION ( 'NONE',  ( 1.000000000000000000, 0.0000000000000000000, 0.0000000000000000000 ) ) ;
#198 = SPHERICAL_SURFACE ( 'NONE', #61, 90.40000000000000600 ) ;
#199 = CALENDAR_DATE ( 2015, 17, 6 ) ;
#200 = CARTESIAN_POINT ( 'NONE',  ( 0.0000000000000000000, 0.0000000000000000000, -85.25000000000000000 ) ) ;
#201 = CARTESIAN_POINT ( 'NONE',  ( 0.0000000000000000000, 0.0000000000000000000, 85.25000000000000000 ) ) ;
#202 = DIRECTION ( 'NONE',  ( 0.0000000000000000000, 0.0000000000000000000, -1.000000000000000000 ) ) ;
#203 = FACE_OUTER_BOUND ( 'NONE', #22, .T. ) ;
#204 = DATE_AND_TIME ( #199, #16 ) ;
#205 = VERTEX_POINT ( 'NONE', #32 ) ;
#206 = CIRCLE ( 'NONE', #191, 25.16041553109976500 ) ;
#207 = DIRECTION ( 'NONE',  ( -0.0000000000000000000, -0.0000000000000000000, 1.000000000000000000 ) ) ;
#208 = CIRCLE ( 'NONE', #303, 25.39999999999999900 ) ;
#209 = DIRECTION ( 'NONE',  ( 0.0000000000000000000, 0.0000000000000000000, -1.000000000000000000 ) ) ;
#210 = ORIENTED_EDGE ( 'NONE', *, *, #120, .F. ) ;
#211 = CC_DESIGN_APPROVAL ( #312, ( #362 ) ) ;
#212 = CARTESIAN_POINT ( 'NONE',  ( 0.0000000000000000000, 0.0000000000000000000, 5.150000000000000400 ) ) ;
#213 = DIRECTION ( 'NONE',  ( 1.000000000000000000, 0.0000000000000000000, 0.0000000000000000000 ) ) ;
#214 = VECTOR ( 'NONE', #99, 999.9999999999998900 ) ;
#215 = PERSON_AND_ORGANIZATION ( #239, #329 ) ;
#216 = CIRCLE ( 'NONE', #110, 90.40000000000000600 ) ;
#217 = EDGE_CURVE ( 'NONE', #308, #160, #294, .T. ) ;
#218 = MECHANICAL_CONTEXT ( 'NONE', #186, 'mechanical' ) ;
#219 = EDGE_CURVE ( 'NONE', #160, #205, #129, .T. ) ;
#220 = VECTOR ( 'NONE', #151, 1000.000000000000100 ) ;
#221 = ORIENTED_EDGE ( 'NONE', *, *, #31, .F. ) ;
#222 = DIRECTION ( 'NONE',  ( 0.0000000000000000000, 0.0000000000000000000, -1.000000000000000000 ) ) ;
#223 = ADVANCED_FACE ( 'NONE', ( #237 ), #305, .T. ) ;
#224 = CARTESIAN_POINT ( 'NONE',  ( 0.0000000000000000000, 0.0000000000000000000, 0.0000000000000000000 ) ) ;
#225 = EDGE_CURVE ( 'NONE', #282, #307, #91, .T. ) ;
#226 = ORIENTED_EDGE ( 'NONE', *, *, #120, .T. ) ;
#227 = CARTESIAN_POINT ( 'NONE',  ( 0.0000000000000000000, 0.0000000000000000000, -1.578068562547205300 ) ) ;
#228 = EDGE_CURVE ( 'NONE', #45, #282, #195, .T. ) ;
#229 =( LENGTH_UNIT ( ) NAMED_UNIT ( * ) SI_UNIT ( .MILLI., .METRE. ) );
#230 = DIRECTION ( 'NONE',  ( 0.0000000000000000000, 0.0000000000000000000, 1.000000000000000000 ) ) ;
#231 = AXIS2_PLACEMENT_3D ( 'NONE', #251, #77, #132 ) ;
#232 = CC_DESIGN_APPROVAL ( #58, ( #78 ) ) ;
#233 = FACE_OUTER_BOUND ( 'NONE', #265, .T. ) ;
#234 = APPROVAL_PERSON_ORGANIZATION ( #215, #312, #331 ) ;
#235 = EDGE_CURVE ( 'NONE', #48, #69, #97, .T. ) ;
#236 = CARTESIAN_POINT ( 'NONE',  ( 0.0000000000000000000, 25.16041553109974800, 1.578068562547191300 ) ) ;
#237 = FACE_OUTER_BOUND ( 'NONE', #248, .T. ) ;
#238 = DIRECTION ( 'NONE',  ( 0.0000000000000000000, 0.0000000000000000000, -1.000000000000000000 ) ) ;
#239 = PERSON ( 'UNSPECIFIED', 'UNSPECIFIED', 'UNSPECIFIED', ('UNSPECIFIED'), ('UNSPECIFIED'), ('UNSPECIFIED') ) ;
#240 = AXIS2_PLACEMENT_3D ( 'NONE', #279, #123, #109 ) ;
#241 = CONICAL_SURFACE ( 'NONE', #270, 25.16041553109975100, 0.6429940278101008400 ) ;
#242 = DIRECTION ( 'NONE',  ( 0.0000000000000000000, 0.0000000000000000000, -1.000000000000000000 ) ) ;
#243 = CARTESIAN_POINT ( 'NONE',  ( 0.0000000000000000000, 0.0000000000000000000, -1.258284906975881700 ) ) ;
#244 = ORIENTED_EDGE ( 'NONE', *, *, #361, .T. ) ;
#245 = PERSON_AND_ORGANIZATION_ROLE ( 'creator' ) ;
#246 = ADVANCED_BREP_SHAPE_REPRESENTATION ( '4333-E0W', ( #66, #42 ), #313 ) ;
#247 = AXIS2_PLACEMENT_3D ( 'NONE', #227, #209, #197 ) ;
#248 = EDGE_LOOP ( 'NONE', ( #141, #181, #184, #299, #50 ) ) ;
#249 = LINE ( 'NONE', #52, #220 ) ;
#250 = PERSON_AND_ORGANIZATION_ROLE ( 'classification_officer' ) ;
#251 = CARTESIAN_POINT ( 'NONE',  ( 0.0000000000000000000, 0.0000000000000000000, 1.578068562547191300 ) ) ;
#252 = DIRECTION ( 'NONE',  ( 1.000000000000000000, 0.0000000000000000000, 0.0000000000000000000 ) ) ;
#253 = ORIENTED_EDGE ( 'NONE', *, *, #31, .T. ) ;
#254 = DIRECTION ( 'NONE',  ( -1.000000000000000000, 0.0000000000000000000, 0.0000000000000000000 ) ) ;
#255 = AXIS2_PLACEMENT_3D ( 'NONE', #150, #82, #24 ) ;
#256 = CARTESIAN_POINT ( 'NONE',  ( 0.0000000000000000000, 0.0000000000000000000, 85.25000000000000000 ) ) ;
#257 = CARTESIAN_POINT ( 'NONE',  ( 0.0000000000000000000, 0.0000000000000000000, 1.578068562547191300 ) ) ;
#258 = ORIENTED_EDGE ( 'NONE', *, *, #125, .T. ) ;
#259 = APPLICATION_PROTOCOL_DEFINITION ( 'international standard', 'config_control_design', 1994, #186 ) ;
#260 = EDGE_CURVE ( 'NONE', #268, #307, #216, .T. ) ;
#261 = DESIGN_CONTEXT ( 'detailed design', #142, 'design' ) ;
#262 = CARTESIAN_POINT ( 'NONE',  ( 0.0000000000000000000, 0.0000000000000000000, 1.258284906975909400 ) ) ;
#263 = ORIENTED_EDGE ( 'NONE', *, *, #217, .F. ) ;
#264 = EDGE_CURVE ( 'NONE', #290, #338, #118, .T. ) ;
#265 = EDGE_LOOP ( 'NONE', ( #196, #134, #316, #157 ) ) ;
#266 = PERSON_AND_ORGANIZATION ( #239, #329 ) ;
#267 = CARTESIAN_POINT ( 'NONE',  ( -25.16041553109971600, 3.095932552186069400E-015, -1.578068562547205300 ) ) ;
#268 = VERTEX_POINT ( 'NONE', #359 ) ;
#269 = DIRECTION ( 'NONE',  ( -0.5995942580915024600, 0.0000000000000000000, -0.8003041457244244300 ) ) ;
#270 = AXIS2_PLACEMENT_3D ( 'NONE', #171, #114, #36 ) ;
#271 = DIRECTION ( 'NONE',  ( -1.000000000000000000, 1.224646799147353200E-016, 0.0000000000000000000 ) ) ;
#272 = CC_DESIGN_PERSON_AND_ORGANIZATION_ASSIGNMENT ( #76, #347, ( #362 ) ) ;
#273 = DIRECTION ( 'NONE',  ( -1.000000000000000000, 0.0000000000000000000, 0.0000000000000000000 ) ) ;
#274 = ORIENTED_EDGE ( 'NONE', *, *, #144, .F. ) ;
#275 = CARTESIAN_POINT ( 'NONE',  ( 0.0000000000000000000, 0.0000000000000000000, 85.25000000000000000 ) ) ;
#276 = DIRECTION ( 'NONE',  ( -1.000000000000000000, 0.0000000000000000000, 0.0000000000000000000 ) ) ;
#277 = VECTOR ( 'NONE', #53, 1000.000000000000000 ) ;
#278 = CARTESIAN_POINT ( 'NONE',  ( 25.16041553109976500, 3.095932552186072500E-015, 1.578068562547191300 ) ) ;
#279 = CARTESIAN_POINT ( 'NONE',  ( 0.0000000000000000000, 0.0000000000000000000, -85.25000000000000000 ) ) ;
#280 = EDGE_LOOP ( 'NONE', ( #326, #178, #89, #330, #210 ) ) ;
#281 = ADVANCED_FACE ( 'NONE', ( #46 ), #29, .T. ) ;
#282 = VERTEX_POINT ( 'NONE', #236 ) ;
#283 = COORDINATED_UNIVERSAL_TIME_OFFSET ( 5, 0, .BEHIND. ) ;
#284 = DIRECTION ( 'NONE',  ( -0.0000000000000000000, -0.0000000000000000000, 1.000000000000000000 ) ) ;
#285 = AXIS2_PLACEMENT_3D ( 'NONE', #68, #222, #213 ) ;
#286 = ORIENTED_EDGE ( 'NONE', *, *, #165, .T. ) ;
#287 = DIRECTION ( 'NONE',  ( 0.0000000000000000000, 1.000000000000000000, 0.0000000000000000000 ) ) ;
#288 = DIRECTION ( 'NONE',  ( 1.000000000000000000, 0.0000000000000000000, 0.0000000000000000000 ) ) ;
#289 = CIRCLE ( 'NONE', #51, 90.40000000000000600 ) ;
#290 = VERTEX_POINT ( 'NONE', #106 ) ;
#291 = APPROVAL_ROLE ( '' ) ;
#292 = FACE_OUTER_BOUND ( 'NONE', #296, .T. ) ;
#293 = CC_DESIGN_PERSON_AND_ORGANIZATION_ASSIGNMENT ( #311, #250, ( #345 ) ) ;
#294 = CIRCLE ( 'NONE', #255, 90.40000000000000600 ) ;
#295 = LOCAL_TIME ( 16, 47, 36.00000000000000000, #332 ) ;
#296 = EDGE_LOOP ( 'NONE', ( #226, #258, #11, #148 ) ) ;
#297 = EDGE_CURVE ( 'NONE', #338, #290, #328, .T. ) ;
#298 = VERTEX_POINT ( 'NONE', #1 ) ;
#299 = ORIENTED_EDGE ( 'NONE', *, *, #147, .F. ) ;
#300 = CALENDAR_DATE ( 2015, 17, 6 ) ;
#301 = CC_DESIGN_PERSON_AND_ORGANIZATION_ASSIGNMENT ( #168, #40, ( #193 ) ) ;
#302 = CARTESIAN_POINT ( 'NONE',  ( 0.0000000000000000000, 0.0000000000000000000, 1.578068562547191300 ) ) ;
#303 = AXIS2_PLACEMENT_3D ( 'NONE', #353, #6, #350 ) ;
#304 = ADVANCED_FACE ( 'NONE', ( #62 ), #54, .T. ) ;
#305 = CONICAL_SURFACE ( 'NONE', #348, 25.39999999999999900, 0.6429940278101424800 ) ;
#306 = CC_DESIGN_PERSON_AND_ORGANIZATION_ASSIGNMENT ( #73, #15, ( #78 ) ) ;
#307 = VERTEX_POINT ( 'NONE', #79 ) ;
#308 = VERTEX_POINT ( 'NONE', #337 ) ;
#309 = EDGE_CURVE ( 'NONE', #298, #346, #208, .T. ) ;
#310 = LINE ( 'NONE', #80, #67 ) ;
#311 = PERSON_AND_ORGANIZATION ( #239, #329 ) ;
#312 = APPROVAL ( #39, 'UNSPECIFIED' ) ;
#313 =( GEOMETRIC_REPRESENTATION_CONTEXT ( 3 ) GLOBAL_UNCERTAINTY_ASSIGNED_CONTEXT ( ( #175 ) ) GLOBAL_UNIT_ASSIGNED_CONTEXT ( ( #229, #21, #92 ) ) REPRESENTATION_CONTEXT ( 'NONE', 'WORKASPACE' ) );
#314 = CIRCLE ( 'NONE', #231, 25.16041553109976500 ) ;
#315 = APPLICATION_PROTOCOL_DEFINITION ( 'international standard', 'config_control_design', 1994, #142 ) ;
#316 = ORIENTED_EDGE ( 'NONE', *, *, #228, .T. ) ;
#317 = DATE_AND_TIME ( #300, #324 ) ;
#318 = VERTEX_POINT ( 'NONE', #126 ) ;
#319 = DIRECTION ( 'NONE',  ( 0.0000000000000000000, 0.0000000000000000000, -1.000000000000000000 ) ) ;
#320 = PRODUCT_DEFINITION_SHAPE ( 'NONE', 'NONE',  #78 ) ;
#321 = ORIENTED_EDGE ( 'NONE', *, *, #297, .T. ) ;
#322 = CIRCLE ( 'NONE', #174, 25.39999999999999900 ) ;
#323 = APPROVAL_DATE_TIME ( #317, #312 ) ;
#324 = LOCAL_TIME ( 16, 47, 36.00000000000000000, #367 ) ;
#325 = ADVANCED_FACE ( 'NONE', ( #352 ), #90, .T. ) ;
#326 = ORIENTED_EDGE ( 'NONE', *, *, #228, .F. ) ;
#327 = VECTOR ( 'NONE', #143, 999.9999999999998900 ) ;
#328 = CIRCLE ( 'NONE', #356, 25.39999999999999900 ) ;
#329 = ORGANIZATION ( 'UNSPECIFIED', 'UNSPECIFIED', '' ) ;
#330 = ORIENTED_EDGE ( 'NONE', *, *, #165, .F. ) ;
#331 = APPROVAL_ROLE ( '' ) ;
#332 = COORDINATED_UNIVERSAL_TIME_OFFSET ( 5, 0, .BEHIND. ) ;
#333 = LINE ( 'NONE', #44, #277 ) ;
#334 = APPROVAL_PERSON_ORGANIZATION ( #135, #58, #291 ) ;
#335 = APPROVAL_DATE_TIME ( #170, #58 ) ;
#336 = PRODUCT_RELATED_PRODUCT_CATEGORY ( 'detail', '', ( #193 ) ) ;
#337 = CARTESIAN_POINT ( 'NONE',  ( 0.0000000000000000000, 5.535403532146037100E-015, -5.150000000000002100 ) ) ;
#338 = VERTEX_POINT ( 'NONE', #344 ) ;
#339 = AXIS2_PLACEMENT_3D ( 'NONE', #212, #349, #252 ) ;
#340 = APPROVAL_ROLE ( '' ) ;
#341 = DIRECTION ( 'NONE',  ( -1.000000000000000000, 0.0000000000000000000, 0.0000000000000000000 ) ) ;
#342 = EDGE_CURVE ( 'NONE', #69, #160, #159, .T. ) ;
#343 = CALENDAR_DATE ( 2015, 17, 6 ) ;
#344 = CARTESIAN_POINT ( 'NONE',  ( -25.39999999999999900, 3.110602869834276900E-015, 1.258284906975909400 ) ) ;
#345 = SECURITY_CLASSIFICATION ( '', '', #18 ) ;
#346 = VERTEX_POINT ( 'NONE', #100 ) ;
#347 = PERSON_AND_ORGANIZATION_ROLE ( 'design_supplier' ) ;
#348 = AXIS2_PLACEMENT_3D ( 'NONE', #161, #207, #288 ) ;
#349 = DIRECTION ( 'NONE',  ( -0.0000000000000000000, -0.0000000000000000000, 1.000000000000000000 ) ) ;
#350 = DIRECTION ( 'NONE',  ( 1.000000000000000000, 0.0000000000000000000, 0.0000000000000000000 ) ) ;
#351 = CLOSED_SHELL ( 'NONE', ( #107, #223, #71, #304, #49, #20, #281, #158, #325, #190 ) ) ;
#352 = FACE_OUTER_BOUND ( 'NONE', #173, .T. ) ;
#353 = CARTESIAN_POINT ( 'NONE',  ( 0.0000000000000000000, 0.0000000000000000000, -1.258284906975881700 ) ) ;
#354 = DIRECTION ( 'NONE',  ( -0.0000000000000000000, -0.0000000000000000000, 1.000000000000000000 ) ) ;
#355 = ORIENTED_EDGE ( 'NONE', *, *, #309, .T. ) ;
#356 = AXIS2_PLACEMENT_3D ( 'NONE', #262, #202, #127 ) ;
#357 = AXIS2_PLACEMENT_3D ( 'NONE', #189, #238, #273 ) ;
#358 = ORIENTED_EDGE ( 'NONE', *, *, #130, .T. ) ;
#359 = CARTESIAN_POINT ( 'NONE',  ( -3.081262234537865800E-015, -25.16041553109974800, 1.578068562547191300 ) ) ;
#360 = DATE_TIME_ROLE ( 'creation_date' ) ;
#361 = EDGE_CURVE ( 'NONE', #346, #338, #28, .T. ) ;
#362 = PRODUCT_DEFINITION_FORMATION_WITH_SPECIFIED_SOURCE ( 'ANY', '', #193, .NOT_KNOWN. ) ;
#363 = DIRECTION ( 'NONE',  ( 1.000000000000000000, 0.0000000000000000000, 0.0000000000000000000 ) ) ;
#364 = AXIS2_PLACEMENT_3D ( 'NONE', #257, #122, #145 ) ;
#365 = CARTESIAN_POINT ( 'NONE',  ( 0.0000000000000000000, 0.0000000000000000000, -85.25000000000000000 ) ) ;
#366 = CALENDAR_DATE ( 2015, 17, 6 ) ;
#367 = COORDINATED_UNIVERSAL_TIME_OFFSET ( 5, 0, .BEHIND. ) ;
ENDSEC;
END-ISO-10303-21;
