ISO-10303-21;
HEADER;
FILE_DESCRIPTION (( 'STEP AP214' ),
    '1' );
FILE_NAME ('3501-E0W.STEP',
    '2010-12-13T14:13:30',
    ( 'Admin' ),
    ( 'Thorlabs, Inc.' ),
    'SwSTEP 2.0',
    'SolidWorks 2009',
    '' );
FILE_SCHEMA (( 'AUTOMOTIVE_DESIGN' ));
ENDSEC;

DATA;
#1 = ORIENTED_EDGE ( 'NONE', *, *, #32, .T. ) ;
#2 = VERTEX_POINT ( 'NONE', #206 ) ;
#3 = EDGE_CURVE ( 'NONE', #2, #4, #204, .T. ) ;
#4 = VERTEX_POINT ( 'NONE', #188 ) ;
#5 = ORIENTED_EDGE ( 'NONE', *, *, #3, .F. ) ;
#6 = ADVANCED_FACE ( 'NONE', ( #187 ), #89, .T. ) ;
#7 = ORIENTED_EDGE ( 'NONE', *, *, #25, .F. ) ;
#8 = MANIFOLD_SOLID_BREP ( 'NONE', #41 ) ;
#9 = EDGE_LOOP ( 'NONE', ( #5, #1, #34, #11 ) ) ;
#10 = ORIENTED_EDGE ( 'NONE', *, *, #35, .F. ) ;
#11 = ORIENTED_EDGE ( 'NONE', *, *, #22, .F. ) ;
#12 = VERTEX_POINT ( 'NONE', #150 ) ;
#13 = PRODUCT_CONTEXT ( 'NONE', #350, 'mechanical' ) ;
#14 = EDGE_CURVE ( 'NONE', #17, #12, #149, .T. ) ;
#15 = VERTEX_POINT ( 'NONE', #145 ) ;
#16 = ORIENTED_EDGE ( 'NONE', *, *, #14, .T. ) ;
#17 = VERTEX_POINT ( 'NONE', #144 ) ;
#18 = EDGE_CURVE ( 'NONE', #15, #17, #142, .T. ) ;
#19 = ORIENTED_EDGE ( 'NONE', *, *, #18, .T. ) ;
#20 = ADVANCED_FACE ( 'NONE', ( #137 ), #199, .T. ) ;
#21 = EDGE_LOOP ( 'NONE', ( #19, #16, #10, #7 ) ) ;
#22 = EDGE_CURVE ( 'NONE', #4, #12, #194, .T. ) ;
#23 = EDGE_CURVE ( 'NONE', #77, #17, #124, .T. ) ;
#24 = EDGE_LOOP ( 'NONE', ( #29, #30, #26, #76 ) ) ;
#25 = EDGE_CURVE ( 'NONE', #15, #33, #120, .T. ) ;
#26 = ORIENTED_EDGE ( 'NONE', *, *, #18, .F. ) ;
#27 = ADVANCED_FACE ( 'NONE', ( #115 ), #100, .T. ) ;
#28 = EDGE_CURVE ( 'NONE', #78, #77, #99, .T. ) ;
#29 = ORIENTED_EDGE ( 'NONE', *, *, #28, .T. ) ;
#30 = ORIENTED_EDGE ( 'NONE', *, *, #23, .T. ) ;
#31 = ORIENTED_EDGE ( 'NONE', *, *, #14, .F. ) ;
#32 = EDGE_CURVE ( 'NONE', #2, #33, #234, .T. ) ;
#33 = VERTEX_POINT ( 'NONE', #230 ) ;
#34 = ORIENTED_EDGE ( 'NONE', *, *, #35, .T. ) ;
#35 = EDGE_CURVE ( 'NONE', #33, #12, #229, .T. ) ;
#36 = EDGE_CURVE ( 'NONE', #4, #2, #223, .T. ) ;
#37 = ORIENTED_EDGE ( 'NONE', *, *, #22, .T. ) ;
#38 = ADVANCED_FACE ( 'NONE', ( #218 ), #274, .T. ) ;
#39 = ORIENTED_EDGE ( 'NONE', *, *, #3, .T. ) ;
#40 = ORIENTED_EDGE ( 'NONE', *, *, #36, .F. ) ;
#41 = CLOSED_SHELL ( 'NONE', ( #6, #20, #27, #60, #65, #72, #58, #48, #38 ) ) ;
#42 = EDGE_LOOP ( 'NONE', ( #43, #39 ) ) ;
#43 = ORIENTED_EDGE ( 'NONE', *, *, #36, .T. ) ;
#44 = ORIENTED_EDGE ( 'NONE', *, *, #51, .T. ) ;
#45 = ORIENTED_EDGE ( 'NONE', *, *, #57, .T. ) ;
#46 = ORIENTED_EDGE ( 'NONE', *, *, #25, .T. ) ;
#47 = EDGE_LOOP ( 'NONE', ( #49, #40, #37, #44 ) ) ;
#48 = ADVANCED_FACE ( 'NONE', ( #272 ), #185, .T. ) ;
#49 = ORIENTED_EDGE ( 'NONE', *, *, #32, .F. ) ;
#50 = ORIENTED_EDGE ( 'NONE', *, *, #51, .F. ) ;
#51 = EDGE_CURVE ( 'NONE', #12, #33, #180, .T. ) ;
#52 = EDGE_CURVE ( 'NONE', #77, #78, #175, .T. ) ;
#53 = VERTEX_POINT ( 'NONE', #170 ) ;
#54 = ORIENTED_EDGE ( 'NONE', *, *, #52, .F. ) ;
#55 = ORIENTED_EDGE ( 'NONE', *, *, #75, .T. ) ;
#56 = ORIENTED_EDGE ( 'NONE', *, *, #57, .F. ) ;
#57 = EDGE_CURVE ( 'NONE', #17, #15, #168, .T. ) ;
#58 = ADVANCED_FACE ( 'NONE', ( #163 ), #359, .T. ) ;
#59 = EDGE_LOOP ( 'NONE', ( #31, #45, #46, #50 ) ) ;
#60 = ADVANCED_FACE ( 'NONE', ( #294 ), #362, .F. ) ;
#61 = ORIENTED_EDGE ( 'NONE', *, *, #62, .T. ) ;
#62 = EDGE_CURVE ( 'NONE', #77, #53, #320, .T. ) ;
#63 = ORIENTED_EDGE ( 'NONE', *, *, #64, .F. ) ;
#64 = EDGE_CURVE ( 'NONE', #78, #53, #321, .T. ) ;
#65 = ADVANCED_FACE ( 'NONE', ( #332 ), #312, .F. ) ;
#66 = EDGE_LOOP ( 'NONE', ( #67, #68, #69 ) ) ;
#67 = ORIENTED_EDGE ( 'NONE', *, *, #62, .F. ) ;
#68 = ORIENTED_EDGE ( 'NONE', *, *, #28, .F. ) ;
#69 = ORIENTED_EDGE ( 'NONE', *, *, #64, .T. ) ;
#70 = EDGE_LOOP ( 'NONE', ( #73, #74, #55, #56 ) ) ;
#71 = EDGE_LOOP ( 'NONE', ( #54, #61, #63 ) ) ;
#72 = ADVANCED_FACE ( 'NONE', ( #313 ), #298, .T. ) ;
#73 = ORIENTED_EDGE ( 'NONE', *, *, #23, .F. ) ;
#74 = ORIENTED_EDGE ( 'NONE', *, *, #52, .T. ) ;
#75 = EDGE_CURVE ( 'NONE', #78, #15, #385, .T. ) ;
#76 = ORIENTED_EDGE ( 'NONE', *, *, #75, .F. ) ;
#77 = VERTEX_POINT ( 'NONE', #381 ) ;
#78 = VERTEX_POINT ( 'NONE', #380 ) ;
#79 = PRESENTATION_STYLE_ASSIGNMENT (( #80 ) ) ;
#80 = SURFACE_STYLE_USAGE ( .BOTH. , #81 ) ;
#81 = SURFACE_SIDE_STYLE ('',( #82 ) ) ;
#82 = SURFACE_STYLE_FILL_AREA ( #83 ) ;
#83 = FILL_AREA_STYLE ('',( #205 ) ) ;
#84 = COLOUR_RGB ( '',0.7529411764705882200, 0.7529411764705882200, 0.7529411764705882200 ) ;
#85 = CARTESIAN_POINT ( 'NONE',  ( 0.0000000000000000000, 1.699443474555835200E-015, -1.500000000000001600 ) ) ;
#86 = AXIS2_PLACEMENT_3D ( 'NONE', #85, #254, #253 ) ;
#87 = COLOUR_RGB ( '',0.7960784313725489700, 0.8235294117647058400, 0.9372549019607843100 ) ;
#88 = FILL_AREA_STYLE_COLOUR ( '', #87 ) ;
#89 = CONICAL_SURFACE ( 'NONE', #86, 12.55857864376268800, 0.7853981633974490600 ) ;
#90 =( GEOMETRIC_REPRESENTATION_CONTEXT ( 3 ) GLOBAL_UNCERTAINTY_ASSIGNED_CONTEXT ( ( #91 ) ) GLOBAL_UNIT_ASSIGNED_CONTEXT ( ( #94, #93, #92 ) ) REPRESENTATION_CONTEXT ( 'NONE', 'WORKASPACE' ) );
#91 = UNCERTAINTY_MEASURE_WITH_UNIT (LENGTH_MEASURE( 1.000000000000000100E-005 ), #94, 'distance_accuracy_value', 'NONE');
#92 =( NAMED_UNIT ( * ) SI_UNIT ( $, .STERADIAN. ) SOLID_ANGLE_UNIT ( ) );
#93 =( NAMED_UNIT ( * ) PLANE_ANGLE_UNIT ( ) SI_UNIT ( $, .RADIAN. ) );
#94 =( LENGTH_UNIT ( ) NAMED_UNIT ( * ) SI_UNIT ( .MILLI., .METRE. ) );
#95 = MECHANICAL_DESIGN_GEOMETRIC_PRESENTATION_REPRESENTATION (  '', ( #97 ), #90 ) ;
#96 = PRESENTATION_LAYER_ASSIGNMENT (  '', '', ( #97 ) ) ;
#97 = STYLED_ITEM ( 'NONE', ( #79 ), #6 ) ;
#98 = CARTESIAN_POINT ( 'NONE',  ( 0.0000000000000000000, -1.649431272718333700E-015, 9.438255012321221200 ) ) ;
#99 = CIRCLE ( 'NONE', #238, 12.55857864376269200 ) ;
#100 = CONICAL_SURFACE ( 'NONE', #241, 12.70000000000000100, 0.7853981633975587500 ) ;
#101 =( GEOMETRIC_REPRESENTATION_CONTEXT ( 3 ) GLOBAL_UNCERTAINTY_ASSIGNED_CONTEXT ( ( #102 ) ) GLOBAL_UNIT_ASSIGNED_CONTEXT ( ( #105, #104, #103 ) ) REPRESENTATION_CONTEXT ( 'NONE', 'WORKASPACE' ) );
#102 = UNCERTAINTY_MEASURE_WITH_UNIT (LENGTH_MEASURE( 1.000000000000000100E-005 ), #105, 'distance_accuracy_value', 'NONE');
#103 =( NAMED_UNIT ( * ) SI_UNIT ( $, .STERADIAN. ) SOLID_ANGLE_UNIT ( ) );
#104 =( NAMED_UNIT ( * ) PLANE_ANGLE_UNIT ( ) SI_UNIT ( $, .RADIAN. ) );
#105 =( LENGTH_UNIT ( ) NAMED_UNIT ( * ) SI_UNIT ( .MILLI., .METRE. ) );
#106 = MECHANICAL_DESIGN_GEOMETRIC_PRESENTATION_REPRESENTATION (  '', ( #108 ), #101 ) ;
#107 = PRESENTATION_LAYER_ASSIGNMENT (  '', '', ( #108 ) ) ;
#108 = STYLED_ITEM ( 'NONE', ( #109 ), #27 ) ;
#109 = PRESENTATION_STYLE_ASSIGNMENT (( #110 ) ) ;
#110 = SURFACE_STYLE_USAGE ( .BOTH. , #111 ) ;
#111 = SURFACE_SIDE_STYLE ('',( #112 ) ) ;
#112 = SURFACE_STYLE_FILL_AREA ( #113 ) ;
#113 = FILL_AREA_STYLE ('',( #119 ) ) ;
#114 = COLOUR_RGB ( '',0.7529411764705882200, 0.7529411764705882200, 0.7529411764705882200 ) ;
#115 = FACE_OUTER_BOUND ( 'NONE', #24, .T. ) ;
#116 = DIRECTION ( 'NONE',  ( -0.0000000000000000000, 3.061616997868382600E-016, -1.000000000000000000 ) ) ;
#117 = VECTOR ( 'NONE', #116, 1000.000000000000000 ) ;
#118 = CARTESIAN_POINT ( 'NONE',  ( 0.0000000000000000000, 12.70000000000000100, -1.499999999999996200 ) ) ;
#119 = FILL_AREA_STYLE_COLOUR ( '', #114 ) ;
#120 = LINE ( 'NONE', #118, #117 ) ;
#121 = DIRECTION ( 'NONE',  ( 8.659274570720310700E-017, -0.7071067811866254000, -0.7071067811864696400 ) ) ;
#122 = VECTOR ( 'NONE', #121, 1000.000000000000100 ) ;
#123 = CARTESIAN_POINT ( 'NONE',  ( 1.555250069354419300E-015, -12.70000000000000300, 9.438255012321217700 ) ) ;
#124 = LINE ( 'NONE', #123, #122 ) ;
#125 =( NAMED_UNIT ( * ) SI_UNIT ( $, .STERADIAN. ) SOLID_ANGLE_UNIT ( ) );
#126 =( NAMED_UNIT ( * ) PLANE_ANGLE_UNIT ( ) SI_UNIT ( $, .RADIAN. ) );
#127 =( LENGTH_UNIT ( ) NAMED_UNIT ( * ) SI_UNIT ( .MILLI., .METRE. ) );
#128 = MECHANICAL_DESIGN_GEOMETRIC_PRESENTATION_REPRESENTATION (  '', ( #130 ), #200 ) ;
#129 = PRESENTATION_LAYER_ASSIGNMENT (  '', '', ( #130 ) ) ;
#130 = STYLED_ITEM ( 'NONE', ( #131 ), #20 ) ;
#131 = PRESENTATION_STYLE_ASSIGNMENT (( #132 ) ) ;
#132 = SURFACE_STYLE_USAGE ( .BOTH. , #133 ) ;
#133 = SURFACE_SIDE_STYLE ('',( #134 ) ) ;
#134 = SURFACE_STYLE_FILL_AREA ( #135 ) ;
#135 = FILL_AREA_STYLE ('',( #143 ) ) ;
#136 = COLOUR_RGB ( '',0.7529411764705882200, 0.7529411764705882200, 0.7529411764705882200 ) ;
#137 = FACE_OUTER_BOUND ( 'NONE', #21, .T. ) ;
#138 = DIRECTION ( 'NONE',  ( 0.0000000000000000000, 1.000000000000000000, 2.731847993664262700E-016 ) ) ;
#139 = DIRECTION ( 'NONE',  ( -0.0000000000000000000, 3.061616997868382600E-016, -1.000000000000000000 ) ) ;
#140 = CARTESIAN_POINT ( 'NONE',  ( 0.0000000000000000000, -1.649431272718333700E-015, 9.438255012321221200 ) ) ;
#141 = AXIS2_PLACEMENT_3D ( 'NONE', #140, #139, #138 ) ;
#142 = CIRCLE ( 'NONE', #141, 12.70000000000000100 ) ;
#143 = FILL_AREA_STYLE_COLOUR ( '', #136 ) ;
#144 = CARTESIAN_POINT ( 'NONE',  ( 1.555250069354419300E-015, -12.70000000000000300, 9.438255012321217700 ) ) ;
#145 = CARTESIAN_POINT ( 'NONE',  ( 0.0000000000000000000, 12.69999999999999900, 9.438255012321224800 ) ) ;
#146 = DIRECTION ( 'NONE',  ( -0.0000000000000000000, 3.061616997868382600E-016, -1.000000000000000000 ) ) ;
#147 = VECTOR ( 'NONE', #146, 1000.000000000000000 ) ;
#148 = CARTESIAN_POINT ( 'NONE',  ( 1.555250069354419100E-015, -12.69999999999999800, -1.500000000000004000 ) ) ;
#149 = LINE ( 'NONE', #148, #147 ) ;
#150 = CARTESIAN_POINT ( 'NONE',  ( 1.555250069354419100E-015, -12.69999999999999600, -1.358578643762695900 ) ) ;
#151 =( GEOMETRIC_REPRESENTATION_CONTEXT ( 3 ) GLOBAL_UNCERTAINTY_ASSIGNED_CONTEXT ( ( #152 ) ) GLOBAL_UNIT_ASSIGNED_CONTEXT ( ( #244, #243, #242 ) ) REPRESENTATION_CONTEXT ( 'NONE', 'WORKASPACE' ) );
#152 = UNCERTAINTY_MEASURE_WITH_UNIT (LENGTH_MEASURE( 1.000000000000000100E-005 ), #244, 'distance_accuracy_value', 'NONE');
#153 =( LENGTH_UNIT ( ) NAMED_UNIT ( * ) SI_UNIT ( .MILLI., .METRE. ) );
#154 = MECHANICAL_DESIGN_GEOMETRIC_PRESENTATION_REPRESENTATION (  '', ( #156 ), #343 ) ;
#155 = PRESENTATION_LAYER_ASSIGNMENT (  '', '', ( #156 ) ) ;
#156 = STYLED_ITEM ( 'NONE', ( #157 ), #58 ) ;
#157 = PRESENTATION_STYLE_ASSIGNMENT (( #158 ) ) ;
#158 = SURFACE_STYLE_USAGE ( .BOTH. , #159 ) ;
#159 = SURFACE_SIDE_STYLE ('',( #160 ) ) ;
#160 = SURFACE_STYLE_FILL_AREA ( #161 ) ;
#161 = FILL_AREA_STYLE ('',( #169 ) ) ;
#162 = COLOUR_RGB ( '',0.7529411764705882200, 0.7529411764705882200, 0.7529411764705882200 ) ;
#163 = FACE_OUTER_BOUND ( 'NONE', #59, .T. ) ;
#164 = DIRECTION ( 'NONE',  ( 0.0000000000000000000, 1.000000000000000000, 2.731847993664262700E-016 ) ) ;
#165 = DIRECTION ( 'NONE',  ( -0.0000000000000000000, 3.061616997868382600E-016, -1.000000000000000000 ) ) ;
#166 = CARTESIAN_POINT ( 'NONE',  ( 0.0000000000000000000, -1.649431272718333700E-015, 9.438255012321221200 ) ) ;
#167 = AXIS2_PLACEMENT_3D ( 'NONE', #166, #165, #164 ) ;
#168 = CIRCLE ( 'NONE', #167, 12.70000000000000100 ) ;
#169 = FILL_AREA_STYLE_COLOUR ( '', #162 ) ;
#170 = CARTESIAN_POINT ( 'NONE',  ( 0.0000000000000000000, 1.579510022546764000E-014, 1.500000000000001300 ) ) ;
#171 = DIRECTION ( 'NONE',  ( 0.0000000000000000000, 1.000000000000000000, 2.762611160361479200E-016 ) ) ;
#172 = DIRECTION ( 'NONE',  ( -0.0000000000000000000, 3.061616997868382600E-016, -1.000000000000000000 ) ) ;
#173 = CARTESIAN_POINT ( 'NONE',  ( 0.0000000000000000000, -1.692729075530098900E-015, 9.579676368558500200 ) ) ;
#174 = AXIS2_PLACEMENT_3D ( 'NONE', #173, #172, #171 ) ;
#175 = CIRCLE ( 'NONE', #174, 12.55857864376269200 ) ;
#176 = DIRECTION ( 'NONE',  ( 0.0000000000000000000, 1.000000000000000000, 3.073328992872296900E-016 ) ) ;
#177 = DIRECTION ( 'NONE',  ( -0.0000000000000000000, 3.061616997868382600E-016, -1.000000000000000000 ) ) ;
#178 = CARTESIAN_POINT ( 'NONE',  ( 0.0000000000000000000, 1.656145671744060700E-015, -1.358578643762692100 ) ) ;
#179 = AXIS2_PLACEMENT_3D ( 'NONE', #178, #177, #176 ) ;
#180 = CIRCLE ( 'NONE', #179, 12.69999999999999800 ) ;
#181 = DIRECTION ( 'NONE',  ( 0.0000000000000000000, -1.000000000000000000, -3.107937555406665100E-016 ) ) ;
#182 = DIRECTION ( 'NONE',  ( 0.0000000000000000000, -3.061616997868382600E-016, 1.000000000000000000 ) ) ;
#183 = CARTESIAN_POINT ( 'NONE',  ( 0.0000000000000000000, 1.699443474555835200E-015, -1.500000000000001600 ) ) ;
#184 = AXIS2_PLACEMENT_3D ( 'NONE', #183, #182, #181 ) ;
#185 = CONICAL_SURFACE ( 'NONE', #184, 12.55857864376268800, 0.7853981633974490600 ) ;
#186 =( GEOMETRIC_REPRESENTATION_CONTEXT ( 3 ) GLOBAL_UNCERTAINTY_ASSIGNED_CONTEXT ( ( #255 ) ) GLOBAL_UNIT_ASSIGNED_CONTEXT ( ( #258, #257, #256 ) ) REPRESENTATION_CONTEXT ( 'NONE', 'WORKASPACE' ) );
#187 = FACE_OUTER_BOUND ( 'NONE', #9, .T. ) ;
#188 = CARTESIAN_POINT ( 'NONE',  ( 0.0000000000000000000, -12.55857864376268700, -1.500000000000005600 ) ) ;
#189 = DIRECTION ( 'NONE',  ( 0.0000000000000000000, 1.000000000000000000, 3.107937555406665100E-016 ) ) ;
#190 = DIRECTION ( 'NONE',  ( -0.0000000000000000000, 3.061616997868382600E-016, -1.000000000000000000 ) ) ;
#191 = DIRECTION ( 'NONE',  ( 0.0000000000000000000, -0.7071067811865483500, 0.7071067811865468000 ) ) ;
#192 = VECTOR ( 'NONE', #191, 999.9999999999998900 ) ;
#193 = CARTESIAN_POINT ( 'NONE',  ( 0.0000000000000000000, -12.55857864376268700, -1.500000000000005600 ) ) ;
#194 = LINE ( 'NONE', #193, #192 ) ;
#195 = DIRECTION ( 'NONE',  ( 0.0000000000000000000, 1.000000000000000000, 3.073328992872296400E-016 ) ) ;
#196 = DIRECTION ( 'NONE',  ( -0.0000000000000000000, 3.061616997868382600E-016, -1.000000000000000000 ) ) ;
#197 = CARTESIAN_POINT ( 'NONE',  ( 0.0000000000000000000, 1.699443474555834900E-015, -1.500000000000000000 ) ) ;
#198 = AXIS2_PLACEMENT_3D ( 'NONE', #197, #196, #195 ) ;
#199 = CYLINDRICAL_SURFACE ( 'NONE', #198, 12.69999999999999900 ) ;
#200 =( GEOMETRIC_REPRESENTATION_CONTEXT ( 3 ) GLOBAL_UNCERTAINTY_ASSIGNED_CONTEXT ( ( #201 ) ) GLOBAL_UNIT_ASSIGNED_CONTEXT ( ( #127, #126, #125 ) ) REPRESENTATION_CONTEXT ( 'NONE', 'WORKASPACE' ) );
#201 = UNCERTAINTY_MEASURE_WITH_UNIT (LENGTH_MEASURE( 1.000000000000000100E-005 ), #127, 'distance_accuracy_value', 'NONE');
#202 = CARTESIAN_POINT ( 'NONE',  ( 0.0000000000000000000, 1.699443474555835200E-015, -1.500000000000001600 ) ) ;
#203 = AXIS2_PLACEMENT_3D ( 'NONE', #202, #190, #189 ) ;
#204 = CIRCLE ( 'NONE', #203, 12.55857864376268800 ) ;
#205 = FILL_AREA_STYLE_COLOUR ( '', #84 ) ;
#206 = CARTESIAN_POINT ( 'NONE',  ( 1.546590794783699500E-015, 12.55857864376269000, -1.499999999999997600 ) ) ;
#207 =( NAMED_UNIT ( * ) PLANE_ANGLE_UNIT ( ) SI_UNIT ( $, .RADIAN. ) );
#208 =( LENGTH_UNIT ( ) NAMED_UNIT ( * ) SI_UNIT ( .MILLI., .METRE. ) );
#209 = MECHANICAL_DESIGN_GEOMETRIC_PRESENTATION_REPRESENTATION (  '', ( #211 ), #275 ) ;
#210 = PRESENTATION_LAYER_ASSIGNMENT (  '', '', ( #211 ) ) ;
#211 = STYLED_ITEM ( 'NONE', ( #212 ), #38 ) ;
#212 = PRESENTATION_STYLE_ASSIGNMENT (( #213 ) ) ;
#213 = SURFACE_STYLE_USAGE ( .BOTH. , #214 ) ;
#214 = SURFACE_SIDE_STYLE ('',( #215 ) ) ;
#215 = SURFACE_STYLE_FILL_AREA ( #216 ) ;
#216 = FILL_AREA_STYLE ('',( #224 ) ) ;
#217 = COLOUR_RGB ( '',0.7529411764705882200, 0.7529411764705882200, 0.7529411764705882200 ) ;
#218 = FACE_OUTER_BOUND ( 'NONE', #42, .T. ) ;
#219 = DIRECTION ( 'NONE',  ( 0.0000000000000000000, 1.000000000000000000, 3.107937555406665100E-016 ) ) ;
#220 = DIRECTION ( 'NONE',  ( -0.0000000000000000000, 3.061616997868382600E-016, -1.000000000000000000 ) ) ;
#221 = CARTESIAN_POINT ( 'NONE',  ( 0.0000000000000000000, 1.699443474555835200E-015, -1.500000000000001600 ) ) ;
#222 = AXIS2_PLACEMENT_3D ( 'NONE', #221, #220, #219 ) ;
#223 = CIRCLE ( 'NONE', #222, 12.55857864376268800 ) ;
#224 = FILL_AREA_STYLE_COLOUR ( '', #217 ) ;
#225 = DIRECTION ( 'NONE',  ( 0.0000000000000000000, 1.000000000000000000, 3.073328992872296900E-016 ) ) ;
#226 = DIRECTION ( 'NONE',  ( -0.0000000000000000000, 3.061616997868382600E-016, -1.000000000000000000 ) ) ;
#227 = CARTESIAN_POINT ( 'NONE',  ( 0.0000000000000000000, 1.656145671744060700E-015, -1.358578643762692100 ) ) ;
#228 = AXIS2_PLACEMENT_3D ( 'NONE', #227, #226, #225 ) ;
#229 = CIRCLE ( 'NONE', #228, 12.69999999999999800 ) ;
#230 = CARTESIAN_POINT ( 'NONE',  ( 0.0000000000000000000, 12.69999999999999900, -1.358578643762688100 ) ) ;
#231 = DIRECTION ( 'NONE',  ( 8.659274570719361600E-017, 0.7071067811865479100, 0.7071067811865472400 ) ) ;
#232 = VECTOR ( 'NONE', #231, 999.9999999999998900 ) ;
#233 = CARTESIAN_POINT ( 'NONE',  ( 1.537931520212980100E-015, 12.55857864376269000, -1.499999999999997600 ) ) ;
#234 = LINE ( 'NONE', #233, #232 ) ;
#235 = DIRECTION ( 'NONE',  ( 0.0000000000000000000, 1.000000000000000000, 2.762611160361479200E-016 ) ) ;
#236 = DIRECTION ( 'NONE',  ( -0.0000000000000000000, 3.061616997868382600E-016, -1.000000000000000000 ) ) ;
#237 = CARTESIAN_POINT ( 'NONE',  ( 0.0000000000000000000, -1.692729075530098900E-015, 9.579676368558500200 ) ) ;
#238 = AXIS2_PLACEMENT_3D ( 'NONE', #237, #236, #235 ) ;
#239 = DIRECTION ( 'NONE',  ( 0.0000000000000000000, 1.000000000000000000, 2.731847993664262700E-016 ) ) ;
#240 = DIRECTION ( 'NONE',  ( -0.0000000000000000000, 3.061616997868382600E-016, -1.000000000000000000 ) ) ;
#241 = AXIS2_PLACEMENT_3D ( 'NONE', #98, #240, #239 ) ;
#242 =( NAMED_UNIT ( * ) SI_UNIT ( $, .STERADIAN. ) SOLID_ANGLE_UNIT ( ) );
#243 =( NAMED_UNIT ( * ) PLANE_ANGLE_UNIT ( ) SI_UNIT ( $, .RADIAN. ) );
#244 =( LENGTH_UNIT ( ) NAMED_UNIT ( * ) SI_UNIT ( .MILLI., .METRE. ) );
#245 = MECHANICAL_DESIGN_GEOMETRIC_PRESENTATION_REPRESENTATION (  '', ( #247 ), #151 ) ;
#246 = PRESENTATION_LAYER_ASSIGNMENT (  '', '', ( #247 ) ) ;
#247 = STYLED_ITEM ( 'NONE', ( #248 ), #8 ) ;
#248 = PRESENTATION_STYLE_ASSIGNMENT (( #249 ) ) ;
#249 = SURFACE_STYLE_USAGE ( .BOTH. , #250 ) ;
#250 = SURFACE_SIDE_STYLE ('',( #251 ) ) ;
#251 = SURFACE_STYLE_FILL_AREA ( #252 ) ;
#252 = FILL_AREA_STYLE ('',( #88 ) ) ;
#253 = DIRECTION ( 'NONE',  ( 0.0000000000000000000, -1.000000000000000000, -3.107937555406665100E-016 ) ) ;
#254 = DIRECTION ( 'NONE',  ( 0.0000000000000000000, -3.061616997868382600E-016, 1.000000000000000000 ) ) ;
#255 = UNCERTAINTY_MEASURE_WITH_UNIT (LENGTH_MEASURE( 1.000000000000000100E-005 ), #258, 'distance_accuracy_value', 'NONE');
#256 =( NAMED_UNIT ( * ) SI_UNIT ( $, .STERADIAN. ) SOLID_ANGLE_UNIT ( ) );
#257 =( NAMED_UNIT ( * ) PLANE_ANGLE_UNIT ( ) SI_UNIT ( $, .RADIAN. ) );
#258 =( LENGTH_UNIT ( ) NAMED_UNIT ( * ) SI_UNIT ( .MILLI., .METRE. ) );
#259 = MECHANICAL_DESIGN_GEOMETRIC_PRESENTATION_REPRESENTATION (  '', ( #261 ), #186 ) ;
#260 = PRESENTATION_LAYER_ASSIGNMENT (  '', '', ( #261 ) ) ;
#261 = STYLED_ITEM ( 'NONE', ( #262 ), #48 ) ;
#262 = PRESENTATION_STYLE_ASSIGNMENT (( #263 ) ) ;
#263 = SURFACE_STYLE_USAGE ( .BOTH. , #264 ) ;
#264 = SURFACE_SIDE_STYLE ('',( #265 ) ) ;
#265 = SURFACE_STYLE_FILL_AREA ( #266 ) ;
#266 = FILL_AREA_STYLE ('',( #273 ) ) ;
#267 = COLOUR_RGB ( '',0.7529411764705882200, 0.7529411764705882200, 0.7529411764705882200 ) ;
#268 = DIRECTION ( 'NONE',  ( 0.0000000000000000000, 1.000000000000000000, 3.061616997868382600E-016 ) ) ;
#269 = DIRECTION ( 'NONE',  ( -0.0000000000000000000, 3.061616997868382600E-016, -1.000000000000000000 ) ) ;
#270 = CARTESIAN_POINT ( 'NONE',  ( 0.0000000000000000000, 1.699443474555835000E-015, -1.500000000000000700 ) ) ;
#271 = AXIS2_PLACEMENT_3D ( 'NONE', #270, #269, #268 ) ;
#272 = FACE_OUTER_BOUND ( 'NONE', #47, .T. ) ;
#273 = FILL_AREA_STYLE_COLOUR ( '', #267 ) ;
#274 = PLANE ( 'NONE',  #271 ) ;
#275 =( GEOMETRIC_REPRESENTATION_CONTEXT ( 3 ) GLOBAL_UNCERTAINTY_ASSIGNED_CONTEXT ( ( #276 ) ) GLOBAL_UNIT_ASSIGNED_CONTEXT ( ( #208, #207, #277 ) ) REPRESENTATION_CONTEXT ( 'NONE', 'WORKASPACE' ) );
#276 = UNCERTAINTY_MEASURE_WITH_UNIT (LENGTH_MEASURE( 1.000000000000000100E-005 ), #208, 'distance_accuracy_value', 'NONE');
#277 =( NAMED_UNIT ( * ) SI_UNIT ( $, .STERADIAN. ) SOLID_ANGLE_UNIT ( ) );
#278 =( LENGTH_UNIT ( ) NAMED_UNIT ( * ) SI_UNIT ( .MILLI., .METRE. ) );
#279 = MECHANICAL_DESIGN_GEOMETRIC_PRESENTATION_REPRESENTATION (  '', ( #281 ), #335 ) ;
#280 = PRESENTATION_LAYER_ASSIGNMENT (  '', '', ( #281 ) ) ;
#281 = STYLED_ITEM ( 'NONE', ( #282 ), #289 ) ;
#282 = PRESENTATION_STYLE_ASSIGNMENT (( #283 ) ) ;
#283 = SURFACE_STYLE_USAGE ( .BOTH. , #284 ) ;
#284 = SURFACE_SIDE_STYLE ('',( #285 ) ) ;
#285 = SURFACE_STYLE_FILL_AREA ( #286 ) ;
#286 = FILL_AREA_STYLE ('',( #287 ) ) ;
#287 = FILL_AREA_STYLE_COLOUR ( '', #288 ) ;
#288 = COLOUR_RGB ( '',0.7960784313725489700, 0.8235294117647058400, 0.9372549019607843100 ) ;
#289 = ADVANCED_BREP_SHAPE_REPRESENTATION ( '3501-E0W', ( #8, #392 ), #290 ) ;
#290 =( GEOMETRIC_REPRESENTATION_CONTEXT ( 3 ) GLOBAL_UNCERTAINTY_ASSIGNED_CONTEXT ( ( #291 ) ) GLOBAL_UNIT_ASSIGNED_CONTEXT ( ( #378, #377, #292 ) ) REPRESENTATION_CONTEXT ( 'NONE', 'WORKASPACE' ) );
#291 = UNCERTAINTY_MEASURE_WITH_UNIT (LENGTH_MEASURE( 1.000000000000000100E-005 ), #378, 'distance_accuracy_value', 'NONE');
#292 =( NAMED_UNIT ( * ) SI_UNIT ( $, .STERADIAN. ) SOLID_ANGLE_UNIT ( ) );
#293 = FILL_AREA_STYLE_COLOUR ( '', #361 ) ;
#294 = FACE_OUTER_BOUND ( 'NONE', #71, .T. ) ;
#295 = DIRECTION ( 'NONE',  ( -0.0000000000000000000, 3.061616997868382600E-016, -1.000000000000000000 ) ) ;
#296 = CARTESIAN_POINT ( 'NONE',  ( 0.0000000000000000000, -1.649431272718333700E-015, 9.438255012321221200 ) ) ;
#297 = AXIS2_PLACEMENT_3D ( 'NONE', #296, #295, #386 ) ;
#298 = CONICAL_SURFACE ( 'NONE', #297, 12.70000000000000100, 0.7853981633975587500 ) ;
#299 =( GEOMETRIC_REPRESENTATION_CONTEXT ( 3 ) GLOBAL_UNCERTAINTY_ASSIGNED_CONTEXT ( ( #300 ) ) GLOBAL_UNIT_ASSIGNED_CONTEXT ( ( #389, #388, #387 ) ) REPRESENTATION_CONTEXT ( 'NONE', 'WORKASPACE' ) );
#300 = UNCERTAINTY_MEASURE_WITH_UNIT (LENGTH_MEASURE( 1.000000000000000100E-005 ), #389, 'distance_accuracy_value', 'NONE');
#301 = STYLED_ITEM ( 'NONE', ( #302 ), #72 ) ;
#302 = PRESENTATION_STYLE_ASSIGNMENT (( #303 ) ) ;
#303 = SURFACE_STYLE_USAGE ( .BOTH. , #304 ) ;
#304 = SURFACE_SIDE_STYLE ('',( #305 ) ) ;
#305 = SURFACE_STYLE_FILL_AREA ( #306 ) ;
#306 = FILL_AREA_STYLE ('',( #314 ) ) ;
#307 = COLOUR_RGB ( '',0.7529411764705882200, 0.7529411764705882200, 0.7529411764705882200 ) ;
#308 = DIRECTION ( 'NONE',  ( 0.0000000000000000000, 1.000000000000000000, 2.514091994169284200E-016 ) ) ;
#309 = DIRECTION ( 'NONE',  ( 1.000000000000000000, 0.0000000000000000000, -0.0000000000000000000 ) ) ;
#310 = CARTESIAN_POINT ( 'NONE',  ( 0.0000000000000000000, 1.072509038427183100E-014, 15.30000000000000800 ) ) ;
#311 = AXIS2_PLACEMENT_3D ( 'NONE', #310, #309, #308 ) ;
#312 = SPHERICAL_SURFACE ( 'NONE', #311, 13.80000000000000600 ) ;
#313 = FACE_OUTER_BOUND ( 'NONE', #70, .T. ) ;
#314 = FILL_AREA_STYLE_COLOUR ( '', #307 ) ;
#315 = MECHANICAL_DESIGN_GEOMETRIC_PRESENTATION_REPRESENTATION (  '', ( #348 ), #324 ) ;
#316 = DIRECTION ( 'NONE',  ( -1.224606353822377300E-016, 1.000000000000000000, 0.0000000000000000000 ) ) ;
#317 = DIRECTION ( 'NONE',  ( 1.000000000000000000, 1.224606353822377300E-016, 3.749275628560213100E-032 ) ) ;
#318 = CARTESIAN_POINT ( 'NONE',  ( 0.0000000000000000000, 1.072509038427183100E-014, 15.30000000000000800 ) ) ;
#319 = AXIS2_PLACEMENT_3D ( 'NONE', #318, #317, #316 ) ;
#320 = CIRCLE ( 'NONE', #319, 13.80000000000000600 ) ;
#321 = CIRCLE ( 'NONE', #331, 13.80000000000000600 ) ;
#322 = PRESENTATION_STYLE_ASSIGNMENT (( #323 ) ) ;
#323 = SURFACE_STYLE_USAGE ( .BOTH. , #340 ) ;
#324 =( GEOMETRIC_REPRESENTATION_CONTEXT ( 3 ) GLOBAL_UNCERTAINTY_ASSIGNED_CONTEXT ( ( #358 ) ) GLOBAL_UNIT_ASSIGNED_CONTEXT ( ( #363, #357, #327 ) ) REPRESENTATION_CONTEXT ( 'NONE', 'WORKASPACE' ) );
#325 =( GEOMETRIC_REPRESENTATION_CONTEXT ( 3 ) GLOBAL_UNCERTAINTY_ASSIGNED_CONTEXT ( ( #326 ) ) GLOBAL_UNIT_ASSIGNED_CONTEXT ( ( #366, #365, #364 ) ) REPRESENTATION_CONTEXT ( 'NONE', 'WORKASPACE' ) );
#326 = UNCERTAINTY_MEASURE_WITH_UNIT (LENGTH_MEASURE( 1.000000000000000100E-005 ), #366, 'distance_accuracy_value', 'NONE');
#327 =( NAMED_UNIT ( * ) SI_UNIT ( $, .STERADIAN. ) SOLID_ANGLE_UNIT ( ) );
#328 = DIRECTION ( 'NONE',  ( 0.0000000000000000000, 0.0000000000000000000, 1.000000000000000000 ) ) ;
#329 = DIRECTION ( 'NONE',  ( -1.000000000000000000, 0.0000000000000000000, 0.0000000000000000000 ) ) ;
#330 = CARTESIAN_POINT ( 'NONE',  ( 0.0000000000000000000, 1.072509038427183100E-014, 15.30000000000000800 ) ) ;
#331 = AXIS2_PLACEMENT_3D ( 'NONE', #330, #329, #328 ) ;
#332 = FACE_OUTER_BOUND ( 'NONE', #66, .T. ) ;
#333 = DIRECTION ( 'NONE',  ( 1.000000000000000000, 0.0000000000000000000, 0.0000000000000000000 ) ) ;
#334 = DIRECTION ( 'NONE',  ( 0.0000000000000000000, 0.0000000000000000000, 1.000000000000000000 ) ) ;
#335 =( GEOMETRIC_REPRESENTATION_CONTEXT ( 3 ) GLOBAL_UNCERTAINTY_ASSIGNED_CONTEXT ( ( #336 ) ) GLOBAL_UNIT_ASSIGNED_CONTEXT ( ( #278, #338, #337 ) ) REPRESENTATION_CONTEXT ( 'NONE', 'WORKASPACE' ) );
#336 = UNCERTAINTY_MEASURE_WITH_UNIT (LENGTH_MEASURE( 1.000000000000000100E-005 ), #278, 'distance_accuracy_value', 'NONE');
#337 =( NAMED_UNIT ( * ) SI_UNIT ( $, .STERADIAN. ) SOLID_ANGLE_UNIT ( ) );
#338 =( NAMED_UNIT ( * ) PLANE_ANGLE_UNIT ( ) SI_UNIT ( $, .RADIAN. ) );
#339 =( NAMED_UNIT ( * ) SI_UNIT ( $, .STERADIAN. ) SOLID_ANGLE_UNIT ( ) );
#340 = SURFACE_SIDE_STYLE ('',( #341 ) ) ;
#341 = SURFACE_STYLE_FILL_AREA ( #360 ) ;
#342 =( NAMED_UNIT ( * ) PLANE_ANGLE_UNIT ( ) SI_UNIT ( $, .RADIAN. ) );
#343 =( GEOMETRIC_REPRESENTATION_CONTEXT ( 3 ) GLOBAL_UNCERTAINTY_ASSIGNED_CONTEXT ( ( #355 ) ) GLOBAL_UNIT_ASSIGNED_CONTEXT ( ( #153, #342, #339 ) ) REPRESENTATION_CONTEXT ( 'NONE', 'WORKASPACE' ) );
#344 = AXIS2_PLACEMENT_3D ( 'NONE', #346, #345, #356 ) ;
#345 = DIRECTION ( 'NONE',  ( -0.0000000000000000000, 3.061616997868382600E-016, -1.000000000000000000 ) ) ;
#346 = CARTESIAN_POINT ( 'NONE',  ( 0.0000000000000000000, 1.699443474555834900E-015, -1.500000000000000000 ) ) ;
#347 = PRESENTATION_LAYER_ASSIGNMENT (  '', '', ( #348 ) ) ;
#348 = STYLED_ITEM ( 'NONE', ( #322 ), #60 ) ;
#349 = APPLICATION_PROTOCOL_DEFINITION ( 'draft international standard', 'automotive_design', 1998, #350 ) ;
#350 = APPLICATION_CONTEXT ( 'automotive_design' ) ;
#351 = DIRECTION ( 'NONE',  ( 0.0000000000000000000, 1.000000000000000000, 2.514091994169284200E-016 ) ) ;
#352 = DIRECTION ( 'NONE',  ( 1.000000000000000000, 0.0000000000000000000, -0.0000000000000000000 ) ) ;
#353 = CARTESIAN_POINT ( 'NONE',  ( 0.0000000000000000000, 1.072509038427183100E-014, 15.30000000000000800 ) ) ;
#354 = AXIS2_PLACEMENT_3D ( 'NONE', #353, #352, #351 ) ;
#355 = UNCERTAINTY_MEASURE_WITH_UNIT (LENGTH_MEASURE( 1.000000000000000100E-005 ), #153, 'distance_accuracy_value', 'NONE');
#356 = DIRECTION ( 'NONE',  ( 0.0000000000000000000, 1.000000000000000000, 3.073328992872296400E-016 ) ) ;
#357 =( NAMED_UNIT ( * ) PLANE_ANGLE_UNIT ( ) SI_UNIT ( $, .RADIAN. ) );
#358 = UNCERTAINTY_MEASURE_WITH_UNIT (LENGTH_MEASURE( 1.000000000000000100E-005 ), #363, 'distance_accuracy_value', 'NONE');
#359 = CYLINDRICAL_SURFACE ( 'NONE', #344, 12.69999999999999900 ) ;
#360 = FILL_AREA_STYLE ('',( #293 ) ) ;
#361 = COLOUR_RGB ( '',0.7529411764705882200, 0.7529411764705882200, 0.7529411764705882200 ) ;
#362 = SPHERICAL_SURFACE ( 'NONE', #354, 13.80000000000000600 ) ;
#363 =( LENGTH_UNIT ( ) NAMED_UNIT ( * ) SI_UNIT ( .MILLI., .METRE. ) );
#364 =( NAMED_UNIT ( * ) SI_UNIT ( $, .STERADIAN. ) SOLID_ANGLE_UNIT ( ) );
#365 =( NAMED_UNIT ( * ) PLANE_ANGLE_UNIT ( ) SI_UNIT ( $, .RADIAN. ) );
#366 =( LENGTH_UNIT ( ) NAMED_UNIT ( * ) SI_UNIT ( .MILLI., .METRE. ) );
#367 = MECHANICAL_DESIGN_GEOMETRIC_PRESENTATION_REPRESENTATION (  '', ( #369 ), #325 ) ;
#368 = PRESENTATION_LAYER_ASSIGNMENT (  '', '', ( #369 ) ) ;
#369 = STYLED_ITEM ( 'NONE', ( #370 ), #65 ) ;
#370 = PRESENTATION_STYLE_ASSIGNMENT (( #371 ) ) ;
#371 = SURFACE_STYLE_USAGE ( .BOTH. , #372 ) ;
#372 = SURFACE_SIDE_STYLE ('',( #373 ) ) ;
#373 = SURFACE_STYLE_FILL_AREA ( #374 ) ;
#374 = FILL_AREA_STYLE ('',( #375 ) ) ;
#375 = FILL_AREA_STYLE_COLOUR ( '', #376 ) ;
#376 = COLOUR_RGB ( '',0.7529411764705882200, 0.7529411764705882200, 0.7529411764705882200 ) ;
#377 =( NAMED_UNIT ( * ) PLANE_ANGLE_UNIT ( ) SI_UNIT ( $, .RADIAN. ) );
#378 =( LENGTH_UNIT ( ) NAMED_UNIT ( * ) SI_UNIT ( .MILLI., .METRE. ) );
#379 = CARTESIAN_POINT ( 'NONE',  ( 0.0000000000000000000, 0.0000000000000000000, 0.0000000000000000000 ) ) ;
#380 = CARTESIAN_POINT ( 'NONE',  ( 0.0000000000000000000, 12.55857864376269000, 9.579676368558503800 ) ) ;
#381 = CARTESIAN_POINT ( 'NONE',  ( 1.537931520212980700E-015, -12.55857864376267900, 9.579676368558494900 ) ) ;
#382 = DIRECTION ( 'NONE',  ( 0.0000000000000000000, 0.7071067811866258400, -0.7071067811864691900 ) ) ;
#383 = VECTOR ( 'NONE', #382, 1000.000000000000100 ) ;
#384 = CARTESIAN_POINT ( 'NONE',  ( 0.0000000000000000000, 12.69999999999999900, 9.438255012321224800 ) ) ;
#385 = LINE ( 'NONE', #384, #383 ) ;
#386 = DIRECTION ( 'NONE',  ( 0.0000000000000000000, 1.000000000000000000, 2.731847993664262700E-016 ) ) ;
#387 =( NAMED_UNIT ( * ) SI_UNIT ( $, .STERADIAN. ) SOLID_ANGLE_UNIT ( ) );
#388 =( NAMED_UNIT ( * ) PLANE_ANGLE_UNIT ( ) SI_UNIT ( $, .RADIAN. ) );
#389 =( LENGTH_UNIT ( ) NAMED_UNIT ( * ) SI_UNIT ( .MILLI., .METRE. ) );
#390 = MECHANICAL_DESIGN_GEOMETRIC_PRESENTATION_REPRESENTATION (  '', ( #301 ), #299 ) ;
#391 = PRESENTATION_LAYER_ASSIGNMENT (  '', '', ( #301 ) ) ;
#392 = AXIS2_PLACEMENT_3D ( 'NONE', #379, #334, #333 ) ;
#393 = PRODUCT_DEFINITION_SHAPE ( 'NONE', 'NONE',  #396 ) ;
#394 = PRODUCT_RELATED_PRODUCT_CATEGORY ( 'part', '', ( #401 ) ) ;
#395 = PRODUCT_DEFINITION_FORMATION_WITH_SPECIFIED_SOURCE ( 'ANY', '', #401, .NOT_KNOWN. ) ;
#396 = PRODUCT_DEFINITION ( 'UNKNOWN', '', #395, #397 ) ;
#397 = PRODUCT_DEFINITION_CONTEXT ( 'detailed design', #400, 'design' ) ;
#398 = SHAPE_DEFINITION_REPRESENTATION ( #393, #289 ) ;
#399 = APPLICATION_PROTOCOL_DEFINITION ( 'draft international standard', 'automotive_design', 1998, #400 ) ;
#400 = APPLICATION_CONTEXT ( 'automotive_design' ) ;
#401 = PRODUCT ( '3501-E0W', '3501-E0W', '', ( #13 ) ) ;
ENDSEC;
END-ISO-10303-21;
