ISO-10303-21;
HEADER;
FILE_DESCRIPTION (( 'STEP AP203' ),
    '1' );
FILE_NAME ('36936_36964.step',
    '2017-08-23T20:40:00',
    ( '' ),
    ( '' ),
    'SwSTEP 2.0',
    'SolidWorks 2016',
    '' );
FILE_SCHEMA (( 'CONFIG_CONTROL_DESIGN' ));
ENDSEC;

DATA;
#1 = PERSON_AND_ORGANIZATION ( #62, #149 ) ;
#2 = DIRECTION ( 'NONE',  ( -0.0000000000000000000, -0.0000000000000000000, -1.000000000000000000 ) ) ;
#3 = CYLINDRICAL_SURFACE ( 'NONE', #7, 37.49999999999999300 ) ;
#4 = MANIFOLD_SOLID_BREP ( 'Boss-Extrude1', #126 ) ;
#5 = COORDINATED_UNIVERSAL_TIME_OFFSET ( 5, 0, .BEHIND. ) ;
#6 = ADVANCED_FACE ( 'NONE', ( #12 ), #52, .F. ) ;
#7 = AXIS2_PLACEMENT_3D ( 'NONE', #111, #125, #59 ) ;
#8 = CYLINDRICAL_SURFACE ( 'NONE', #73, 37.49999999999999300 ) ;
#9 = PLANE ( 'NONE',  #29 ) ;
#10 = VERTEX_POINT ( 'NONE', #132 ) ;
#11 = DIRECTION ( 'NONE',  ( 0.0000000000000000000, 0.0000000000000000000, 1.000000000000000000 ) ) ;
#12 = FACE_OUTER_BOUND ( 'NONE', #135, .T. ) ;
#13 =( NAMED_UNIT ( * ) PLANE_ANGLE_UNIT ( ) SI_UNIT ( $, .RADIAN. ) );
#14 = ORIENTED_EDGE ( 'NONE', *, *, #20, .T. ) ;
#15 = DATE_TIME_ROLE ( 'creation_date' ) ;
#16 = APPROVAL_STATUS ( 'not_yet_approved' ) ;
#17 = PERSON_AND_ORGANIZATION_ROLE ( 'creator' ) ;
#18 = ORIENTED_EDGE ( 'NONE', *, *, #38, .F. ) ;
#19 = FACE_OUTER_BOUND ( 'NONE', #96, .T. ) ;
#20 = EDGE_CURVE ( 'NONE', #91, #81, #46, .T. ) ;
#21 = ADVANCED_FACE ( 'NONE', ( #85 ), #9, .T. ) ;
#22 = ORIENTED_EDGE ( 'NONE', *, *, #57, .T. ) ;
#23 = DIRECTION ( 'NONE',  ( 0.0000000000000000000, 0.0000000000000000000, 1.000000000000000000 ) ) ;
#24 = DIRECTION ( 'NONE',  ( -0.0000000000000000000, -0.0000000000000000000, -1.000000000000000000 ) ) ;
#25 = DIRECTION ( 'NONE',  ( 0.0000000000000000000, 0.0000000000000000000, 1.000000000000000000 ) ) ;
#26 = PRODUCT_DEFINITION ( 'UNKNOWN', '', #123, #165 ) ;
#27 = COORDINATED_UNIVERSAL_TIME_OFFSET ( 5, 0, .BEHIND. ) ;
#28 = LOCAL_TIME ( 16, 40, 0.0000000000000000000, #170 ) ;
#29 = AXIS2_PLACEMENT_3D ( 'NONE', #173, #23, #37 ) ;
#30 = APPROVAL_ROLE ( '' ) ;
#31 = AXIS2_PLACEMENT_3D ( 'NONE', #174, #50, #172 ) ;
#32 = PERSON_AND_ORGANIZATION ( #62, #149 ) ;
#33 = FACE_OUTER_BOUND ( 'NONE', #152, .T. ) ;
#34 = CARTESIAN_POINT ( 'NONE',  ( 0.0000000000000000000, 0.0000000000000000000, -2.500000000000000000 ) ) ;
#35 = AXIS2_PLACEMENT_3D ( 'NONE', #144, #25, #80 ) ;
#36 = APPROVAL_PERSON_ORGANIZATION ( #65, #54, #30 ) ;
#37 = DIRECTION ( 'NONE',  ( 1.000000000000000000, 0.0000000000000000000, -0.0000000000000000000 ) ) ;
#38 = EDGE_CURVE ( 'NONE', #10, #39, #131, .T. ) ;
#39 = VERTEX_POINT ( 'NONE', #93 ) ;
#40 = DATE_TIME_ROLE ( 'classification_date' ) ;
#41 = PERSON_AND_ORGANIZATION ( #62, #149 ) ;
#42 = APPLICATION_CONTEXT ( 'configuration controlled 3d designs of mechanical parts and assemblies' ) ;
#43 = EDGE_CURVE ( 'NONE', #81, #91, #168, .T. ) ;
#44 = DATE_AND_TIME ( #160, #95 ) ;
#45 = DATE_AND_TIME ( #151, #68 ) ;
#46 = CIRCLE ( 'NONE', #175, 37.49999999999999300 ) ;
#47 = ORIENTED_EDGE ( 'NONE', *, *, #38, .T. ) ;
#48 = APPROVAL_DATE_TIME ( #155, #109 ) ;
#49 = CC_DESIGN_DATE_AND_TIME_ASSIGNMENT ( #108, #40, ( #143 ) ) ;
#50 = DIRECTION ( 'NONE',  ( 0.0000000000000000000, 0.0000000000000000000, 1.000000000000000000 ) ) ;
#51 = DIRECTION ( 'NONE',  ( 1.000000000000000000, 0.0000000000000000000, -0.0000000000000000000 ) ) ;
#52 = PLANE ( 'NONE',  #70 ) ;
#53 = CARTESIAN_POINT ( 'NONE',  ( 0.0000000000000000000, 0.0000000000000000000, 2.500000000000000000 ) ) ;
#54 = APPROVAL ( #112, 'UNSPECIFIED' ) ;
#55 = EDGE_LOOP ( 'NONE', ( #64, #14 ) ) ;
#56 = LINE ( 'NONE', #114, #77 ) ;
#57 = EDGE_CURVE ( 'NONE', #39, #10, #88, .T. ) ;
#58 = PERSON_AND_ORGANIZATION_ROLE ( 'classification_officer' ) ;
#59 = DIRECTION ( 'NONE',  ( -1.000000000000000000, 0.0000000000000000000, 0.0000000000000000000 ) ) ;
#60 = PERSON_AND_ORGANIZATION_ROLE ( 'design_owner' ) ;
#61 = LINE ( 'NONE', #92, #72 ) ;
#62 = PERSON ( 'UNSPECIFIED', 'UNSPECIFIED', 'UNSPECIFIED', ('UNSPECIFIED'), ('UNSPECIFIED'), ('UNSPECIFIED') ) ;
#63 = EDGE_CURVE ( 'NONE', #91, #39, #61, .T. ) ;
#64 = ORIENTED_EDGE ( 'NONE', *, *, #43, .T. ) ;
#65 = PERSON_AND_ORGANIZATION ( #62, #149 ) ;
#66 = DIRECTION ( 'NONE',  ( 0.0000000000000000000, 0.0000000000000000000, 1.000000000000000000 ) ) ;
#67 = CARTESIAN_POINT ( 'NONE',  ( 0.0000000000000000000, 0.0000000000000000000, 2.500000000000000000 ) ) ;
#68 = LOCAL_TIME ( 16, 40, 0.0000000000000000000, #110 ) ;
#69 = PERSON_AND_ORGANIZATION ( #62, #149 ) ;
#70 = AXIS2_PLACEMENT_3D ( 'NONE', #34, #66, #51 ) ;
#71 = APPLICATION_PROTOCOL_DEFINITION ( 'international standard', 'config_control_design', 1994, #42 ) ;
#72 = VECTOR ( 'NONE', #24, 1000.000000000000000 ) ;
#73 = AXIS2_PLACEMENT_3D ( 'NONE', #53, #121, #130 ) ;
#74 = ADVANCED_BREP_SHAPE_REPRESENTATION ( '36936_36964', ( #4, #150 ), #136 ) ;
#75 = PERSON_AND_ORGANIZATION ( #62, #149 ) ;
#76 = CC_DESIGN_PERSON_AND_ORGANIZATION_ASSIGNMENT ( #75, #17, ( #26 ) ) ;
#77 = VECTOR ( 'NONE', #2, 1000.000000000000000 ) ;
#78 = DIRECTION ( 'NONE',  ( 1.000000000000000000, 0.0000000000000000000, 0.0000000000000000000 ) ) ;
#79 = PERSON_AND_ORGANIZATION ( #62, #149 ) ;
#80 = DIRECTION ( 'NONE',  ( 1.000000000000000000, 0.0000000000000000000, 0.0000000000000000000 ) ) ;
#81 = VERTEX_POINT ( 'NONE', #120 ) ;
#82 = APPLICATION_PROTOCOL_DEFINITION ( 'international standard', 'config_control_design', 1994, #86 ) ;
#83 = PERSON_AND_ORGANIZATION_ROLE ( 'creator' ) ;
#84 = SECURITY_CLASSIFICATION_LEVEL ( 'unclassified' ) ;
#85 = FACE_OUTER_BOUND ( 'NONE', #55, .T. ) ;
#86 = APPLICATION_CONTEXT ( 'configuration controlled 3d designs of mechanical parts and assemblies' ) ;
#87 = CC_DESIGN_PERSON_AND_ORGANIZATION_ASSIGNMENT ( #69, #127, ( #123 ) ) ;
#88 = CIRCLE ( 'NONE', #31, 37.49999999999999300 ) ;
#89 = ADVANCED_FACE ( 'NONE', ( #33 ), #8, .T. ) ;
#90 = EDGE_CURVE ( 'NONE', #81, #10, #56, .T. ) ;
#91 = VERTEX_POINT ( 'NONE', #141 ) ;
#92 = CARTESIAN_POINT ( 'NONE',  ( 37.49999999999999300, 4.592425496802573600E-015, 2.500000000000000000 ) ) ;
#93 = CARTESIAN_POINT ( 'NONE',  ( 37.49999999999999300, 4.592425496802573600E-015, -2.500000000000000000 ) ) ;
#94 = CC_DESIGN_PERSON_AND_ORGANIZATION_ASSIGNMENT ( #1, #60, ( #169 ) ) ;
#95 = LOCAL_TIME ( 16, 40, 0.0000000000000000000, #27 ) ;
#96 = EDGE_LOOP ( 'NONE', ( #122, #162, #156, #47 ) ) ;
#97 = DIRECTION ( 'NONE',  ( 0.0000000000000000000, 0.0000000000000000000, 1.000000000000000000 ) ) ;
#98 = APPROVAL_STATUS ( 'not_yet_approved' ) ;
#99 = APPROVAL_ROLE ( '' ) ;
#100 = LOCAL_TIME ( 16, 40, 0.0000000000000000000, #107 ) ;
#101 = ORIENTED_EDGE ( 'NONE', *, *, #57, .F. ) ;
#102 = CARTESIAN_POINT ( 'NONE',  ( 0.0000000000000000000, 0.0000000000000000000, 0.0000000000000000000 ) ) ;
#103 = APPROVAL_PERSON_ORGANIZATION ( #148, #109, #139 ) ;
#104 = ORIENTED_EDGE ( 'NONE', *, *, #63, .T. ) ;
#105 = CC_DESIGN_DATE_AND_TIME_ASSIGNMENT ( #45, #15, ( #26 ) ) ;
#106 = APPROVAL_PERSON_ORGANIZATION ( #32, #133, #99 ) ;
#107 = COORDINATED_UNIVERSAL_TIME_OFFSET ( 5, 0, .BEHIND. ) ;
#108 = DATE_AND_TIME ( #115, #113 ) ;
#109 = APPROVAL ( #98, 'UNSPECIFIED' ) ;
#110 = COORDINATED_UNIVERSAL_TIME_OFFSET ( 5, 0, .BEHIND. ) ;
#111 = CARTESIAN_POINT ( 'NONE',  ( 0.0000000000000000000, 0.0000000000000000000, 2.500000000000000000 ) ) ;
#112 = APPROVAL_STATUS ( 'not_yet_approved' ) ;
#113 = LOCAL_TIME ( 16, 40, 0.0000000000000000000, #5 ) ;
#114 = CARTESIAN_POINT ( 'NONE',  ( -37.49999999999999300, 0.0000000000000000000, 2.500000000000000000 ) ) ;
#115 = CALENDAR_DATE ( 2017, 23, 8 ) ;
#116 = ORIENTED_EDGE ( 'NONE', *, *, #90, .F. ) ;
#117 = CC_DESIGN_APPROVAL ( #109, ( #26 ) ) ;
#118 = CALENDAR_DATE ( 2017, 23, 8 ) ;
#119 = CC_DESIGN_APPROVAL ( #54, ( #123 ) ) ;
#120 = CARTESIAN_POINT ( 'NONE',  ( -37.49999999999999300, 0.0000000000000000000, 2.500000000000000000 ) ) ;
#121 = DIRECTION ( 'NONE',  ( -0.0000000000000000000, -0.0000000000000000000, -1.000000000000000000 ) ) ;
#122 = ORIENTED_EDGE ( 'NONE', *, *, #63, .F. ) ;
#123 = PRODUCT_DEFINITION_FORMATION_WITH_SPECIFIED_SOURCE ( 'ANY', '', #169, .NOT_KNOWN. ) ;
#124 = UNCERTAINTY_MEASURE_WITH_UNIT (LENGTH_MEASURE( 1.000000000000000100E-005 ), #137, 'distance_accuracy_value', 'NONE');
#125 = DIRECTION ( 'NONE',  ( -0.0000000000000000000, -0.0000000000000000000, -1.000000000000000000 ) ) ;
#126 = CLOSED_SHELL ( 'NONE', ( #89, #171, #21, #6 ) ) ;
#127 = PERSON_AND_ORGANIZATION_ROLE ( 'design_supplier' ) ;
#128 = PRODUCT_RELATED_PRODUCT_CATEGORY ( 'detail', '', ( #169 ) ) ;
#129 = CC_DESIGN_PERSON_AND_ORGANIZATION_ASSIGNMENT ( #79, #83, ( #123 ) ) ;
#130 = DIRECTION ( 'NONE',  ( -1.000000000000000000, 0.0000000000000000000, 0.0000000000000000000 ) ) ;
#131 = CIRCLE ( 'NONE', #35, 37.49999999999999300 ) ;
#132 = CARTESIAN_POINT ( 'NONE',  ( -37.49999999999999300, 0.0000000000000000000, -2.500000000000000000 ) ) ;
#133 = APPROVAL ( #16, 'UNSPECIFIED' ) ;
#134 = APPROVAL_DATE_TIME ( #140, #54 ) ;
#135 = EDGE_LOOP ( 'NONE', ( #18, #101 ) ) ;
#136 =( GEOMETRIC_REPRESENTATION_CONTEXT ( 3 ) GLOBAL_UNCERTAINTY_ASSIGNED_CONTEXT ( ( #124 ) ) GLOBAL_UNIT_ASSIGNED_CONTEXT ( ( #137, #13, #164 ) ) REPRESENTATION_CONTEXT ( 'NONE', 'WORKASPACE' ) );
#137 =( LENGTH_UNIT ( ) NAMED_UNIT ( * ) SI_UNIT ( .MILLI., .METRE. ) );
#138 = MECHANICAL_CONTEXT ( 'NONE', #86, 'mechanical' ) ;
#139 = APPROVAL_ROLE ( '' ) ;
#140 = DATE_AND_TIME ( #167, #28 ) ;
#141 = CARTESIAN_POINT ( 'NONE',  ( 37.49999999999999300, 4.592425496802573600E-015, 2.500000000000000000 ) ) ;
#142 = CC_DESIGN_APPROVAL ( #133, ( #143 ) ) ;
#143 = SECURITY_CLASSIFICATION ( '', '', #84 ) ;
#144 = CARTESIAN_POINT ( 'NONE',  ( 0.0000000000000000000, 0.0000000000000000000, -2.500000000000000000 ) ) ;
#145 = DIRECTION ( 'NONE',  ( 0.0000000000000000000, 0.0000000000000000000, 1.000000000000000000 ) ) ;
#146 = AXIS2_PLACEMENT_3D ( 'NONE', #157, #145, #78 ) ;
#147 = APPROVAL_DATE_TIME ( #44, #133 ) ;
#148 = PERSON_AND_ORGANIZATION ( #62, #149 ) ;
#149 = ORGANIZATION ( 'UNSPECIFIED', 'UNSPECIFIED', '' ) ;
#150 = AXIS2_PLACEMENT_3D ( 'NONE', #102, #97, #163 ) ;
#151 = CALENDAR_DATE ( 2017, 23, 8 ) ;
#152 = EDGE_LOOP ( 'NONE', ( #153, #104, #22, #116 ) ) ;
#153 = ORIENTED_EDGE ( 'NONE', *, *, #20, .F. ) ;
#154 = PRODUCT_DEFINITION_SHAPE ( 'NONE', 'NONE',  #26 ) ;
#155 = DATE_AND_TIME ( #118, #100 ) ;
#156 = ORIENTED_EDGE ( 'NONE', *, *, #90, .T. ) ;
#157 = CARTESIAN_POINT ( 'NONE',  ( 0.0000000000000000000, 0.0000000000000000000, 2.500000000000000000 ) ) ;
#158 = SHAPE_DEFINITION_REPRESENTATION ( #154, #74 ) ;
#159 = DIRECTION ( 'NONE',  ( 1.000000000000000000, 0.0000000000000000000, 0.0000000000000000000 ) ) ;
#160 = CALENDAR_DATE ( 2017, 23, 8 ) ;
#161 = CC_DESIGN_PERSON_AND_ORGANIZATION_ASSIGNMENT ( #41, #58, ( #143 ) ) ;
#162 = ORIENTED_EDGE ( 'NONE', *, *, #43, .F. ) ;
#163 = DIRECTION ( 'NONE',  ( 1.000000000000000000, 0.0000000000000000000, 0.0000000000000000000 ) ) ;
#164 =( NAMED_UNIT ( * ) SI_UNIT ( $, .STERADIAN. ) SOLID_ANGLE_UNIT ( ) );
#165 = DESIGN_CONTEXT ( 'detailed design', #42, 'design' ) ;
#166 = CC_DESIGN_SECURITY_CLASSIFICATION ( #143, ( #123 ) ) ;
#167 = CALENDAR_DATE ( 2017, 23, 8 ) ;
#168 = CIRCLE ( 'NONE', #146, 37.49999999999999300 ) ;
#169 = PRODUCT ( '36936_36964', '36936_36964', '', ( #138 ) ) ;
#170 = COORDINATED_UNIVERSAL_TIME_OFFSET ( 5, 0, .BEHIND. ) ;
#171 = ADVANCED_FACE ( 'NONE', ( #19 ), #3, .T. ) ;
#172 = DIRECTION ( 'NONE',  ( 1.000000000000000000, 0.0000000000000000000, 0.0000000000000000000 ) ) ;
#173 = CARTESIAN_POINT ( 'NONE',  ( 0.0000000000000000000, 0.0000000000000000000, 2.500000000000000000 ) ) ;
#174 = CARTESIAN_POINT ( 'NONE',  ( 0.0000000000000000000, 0.0000000000000000000, -2.500000000000000000 ) ) ;
#175 = AXIS2_PLACEMENT_3D ( 'NONE', #67, #11, #159 ) ;
ENDSEC;
END-ISO-10303-21;
