ISO-10303-21;
HEADER;
FILE_DESCRIPTION (( 'STEP AP203' ),
    '1' );
FILE_NAME ('ISP Flat Parts_16805.step',
    '2020-12-15T21:27:57',
    ( '' ),
    ( '' ),
    'SwSTEP 2.0',
    'SolidWorks 2018',
    '' );
FILE_SCHEMA (( 'CONFIG_CONTROL_DESIGN' ));
ENDSEC;

DATA;
#1 = PERSON_AND_ORGANIZATION ( #163, #95 ) ;
#2 = ORIENTED_EDGE ( 'NONE', *, *, #83, .T. ) ;
#3 = APPROVAL_DATE_TIME ( #19, #160 ) ;
#4 = EDGE_CURVE ( 'NONE', #166, #162, #123, .T. ) ;
#5 = DATE_AND_TIME ( #154, #91 ) ;
#6 = MECHANICAL_CONTEXT ( 'NONE', #22, 'mechanical' ) ;
#7 = CARTESIAN_POINT ( 'NONE',  ( 12.69999999999999929, 1.555301434917138433E-15, 0.0000000000000000000 ) ) ;
#8 = DIRECTION ( 'NONE',  ( 0.0000000000000000000, 0.0000000000000000000, 1.000000000000000000 ) ) ;
#9 = APPROVAL_STATUS ( 'not_yet_approved' ) ;
#10 = APPROVAL_STATUS ( 'not_yet_approved' ) ;
#11 = CLOSED_SHELL ( 'NONE', ( #112, #126, #143, #67 ) ) ;
#12 = EDGE_CURVE ( 'NONE', #42, #174, #81, .T. ) ;
#13 = FACE_OUTER_BOUND ( 'NONE', #115, .T. ) ;
#14 = CARTESIAN_POINT ( 'NONE',  ( 0.0000000000000000000, 0.0000000000000000000, 0.0000000000000000000 ) ) ;
#15 = COORDINATED_UNIVERSAL_TIME_OFFSET ( 5, 0, .BEHIND. ) ;
#16 = PERSON_AND_ORGANIZATION_ROLE ( 'design_owner' ) ;
#17 = CARTESIAN_POINT ( 'NONE',  ( 0.0000000000000000000, 0.0000000000000000000, 1.000000000000000000 ) ) ;
#18 = PERSON_AND_ORGANIZATION ( #163, #95 ) ;
#19 = DATE_AND_TIME ( #104, #32 ) ;
#20 = DIRECTION ( 'NONE',  ( 0.0000000000000000000, 0.0000000000000000000, 1.000000000000000000 ) ) ;
#21 = FACE_OUTER_BOUND ( 'NONE', #134, .T. ) ;
#22 = APPLICATION_CONTEXT ( 'configuration controlled 3d designs of mechanical parts and assemblies' ) ;
#23 = LOCAL_TIME ( 16, 27, 57.00000000000000000, #122 ) ;
#24 = ORIENTED_EDGE ( 'NONE', *, *, #56, .T. ) ;
#25 = DIRECTION ( 'NONE',  ( 0.0000000000000000000, 0.0000000000000000000, 1.000000000000000000 ) ) ;
#26 = DIRECTION ( 'NONE',  ( 1.000000000000000000, 0.0000000000000000000, -0.0000000000000000000 ) ) ;
#27 = APPROVAL_ROLE ( '' ) ;
#28 = PERSON_AND_ORGANIZATION_ROLE ( 'design_supplier' ) ;
#29 = CC_DESIGN_DATE_AND_TIME_ASSIGNMENT ( #5, #48, ( #131 ) ) ;
#30 = PRODUCT_DEFINITION_SHAPE ( 'NONE', 'NONE',  #131 ) ;
#31 = PLANE ( 'NONE',  #102 ) ;
#32 = LOCAL_TIME ( 16, 27, 57.00000000000000000, #142 ) ;
#33 = CC_DESIGN_PERSON_AND_ORGANIZATION_ASSIGNMENT ( #148, #116, ( #149 ) ) ;
#34 =( LENGTH_UNIT ( ) NAMED_UNIT ( * ) SI_UNIT ( .MILLI., .METRE. ) );
#35 = VECTOR ( 'NONE', #78, 1000.000000000000000 ) ;
#36 = APPROVAL_ROLE ( '' ) ;
#37 = DIRECTION ( 'NONE',  ( 1.000000000000000000, 0.0000000000000000000, 0.0000000000000000000 ) ) ;
#38 = LOCAL_TIME ( 16, 27, 57.00000000000000000, #80 ) ;
#39 = DIRECTION ( 'NONE',  ( -0.0000000000000000000, -0.0000000000000000000, -1.000000000000000000 ) ) ;
#40 = PERSON_AND_ORGANIZATION_ROLE ( 'classification_officer' ) ;
#41 = CC_DESIGN_PERSON_AND_ORGANIZATION_ASSIGNMENT ( #171, #16, ( #87 ) ) ;
#42 = VERTEX_POINT ( 'NONE', #46 ) ;
#43 = LOCAL_TIME ( 16, 27, 57.00000000000000000, #49 ) ;
#44 = APPROVAL_PERSON_ORGANIZATION ( #86, #160, #36 ) ;
#45 = ORIENTED_EDGE ( 'NONE', *, *, #165, .F. ) ;
#46 = CARTESIAN_POINT ( 'NONE',  ( -12.69999999999999929, 0.0000000000000000000, 0.0000000000000000000 ) ) ;
#47 = CC_DESIGN_DATE_AND_TIME_ASSIGNMENT ( #132, #145, ( #52 ) ) ;
#48 = DATE_TIME_ROLE ( 'creation_date' ) ;
#49 = COORDINATED_UNIVERSAL_TIME_OFFSET ( 5, 0, .BEHIND. ) ;
#50 = CARTESIAN_POINT ( 'NONE',  ( 0.0000000000000000000, 0.0000000000000000000, 1.000000000000000000 ) ) ;
#51 = ORIENTED_EDGE ( 'NONE', *, *, #4, .T. ) ;
#52 = SECURITY_CLASSIFICATION ( '', '', #54 ) ;
#53 = ORIENTED_EDGE ( 'NONE', *, *, #94, .T. ) ;
#54 = SECURITY_CLASSIFICATION_LEVEL ( 'unclassified' ) ;
#55 = PERSON_AND_ORGANIZATION ( #163, #95 ) ;
#56 = EDGE_CURVE ( 'NONE', #174, #42, #105, .T. ) ;
#57 = APPROVAL_PERSON_ORGANIZATION ( #18, #156, #84 ) ;
#58 = EDGE_LOOP ( 'NONE', ( #146, #45, #2, #77 ) ) ;
#59 =( NAMED_UNIT ( * ) PLANE_ANGLE_UNIT ( ) SI_UNIT ( $, .RADIAN. ) );
#60 = AXIS2_PLACEMENT_3D ( 'NONE', #153, #108, #76 ) ;
#61 = CYLINDRICAL_SURFACE ( 'NONE', #106, 12.69999999999999929 ) ;
#62 = APPROVAL_STATUS ( 'not_yet_approved' ) ;
#63 = DIRECTION ( 'NONE',  ( 1.000000000000000000, 0.0000000000000000000, 0.0000000000000000000 ) ) ;
#64 = APPROVAL_DATE_TIME ( #168, #144 ) ;
#65 = DIRECTION ( 'NONE',  ( -1.000000000000000000, 0.0000000000000000000, 0.0000000000000000000 ) ) ;
#66 = PERSON_AND_ORGANIZATION ( #163, #95 ) ;
#67 = ADVANCED_FACE ( 'NONE', ( #13 ), #31, .F. ) ;
#68 = CC_DESIGN_PERSON_AND_ORGANIZATION_ASSIGNMENT ( #1, #28, ( #149 ) ) ;
#69 = AXIS2_PLACEMENT_3D ( 'NONE', #14, #20, #170 ) ;
#70 = CYLINDRICAL_SURFACE ( 'NONE', #109, 12.69999999999999929 ) ;
#71 = CC_DESIGN_APPROVAL ( #156, ( #149 ) ) ;
#72 = CALENDAR_DATE ( 2020, 15, 12 ) ;
#73 = APPROVAL_DATE_TIME ( #85, #156 ) ;
#74 = UNCERTAINTY_MEASURE_WITH_UNIT (LENGTH_MEASURE( 1.000000000000000082E-05 ), #34, 'distance_accuracy_value', 'NONE');
#75 = AXIS2_PLACEMENT_3D ( 'NONE', #172, #8, #37 ) ;
#76 = DIRECTION ( 'NONE',  ( 1.000000000000000000, 0.0000000000000000000, 0.0000000000000000000 ) ) ;
#77 = ORIENTED_EDGE ( 'NONE', *, *, #12, .T. ) ;
#78 = DIRECTION ( 'NONE',  ( -0.0000000000000000000, -0.0000000000000000000, -1.000000000000000000 ) ) ;
#79 = CARTESIAN_POINT ( 'NONE',  ( 12.69999999999999929, 1.555301434917138433E-15, 1.000000000000000000 ) ) ;
#80 = COORDINATED_UNIVERSAL_TIME_OFFSET ( 5, 0, .BEHIND. ) ;
#81 = CIRCLE ( 'NONE', #69, 12.69999999999999929 ) ;
#82 = CARTESIAN_POINT ( 'NONE',  ( 0.0000000000000000000, 0.0000000000000000000, 0.0000000000000000000 ) ) ;
#83 = EDGE_CURVE ( 'NONE', #162, #42, #175, .T. ) ;
#84 = APPROVAL_ROLE ( '' ) ;
#85 = DATE_AND_TIME ( #114, #23 ) ;
#86 = PERSON_AND_ORGANIZATION ( #163, #95 ) ;
#87 = PRODUCT ( 'ISP Flat Parts_16805', 'ISP Flat Parts_16805', '', ( #6 ) ) ;
#88 = AXIS2_PLACEMENT_3D ( 'NONE', #82, #141, #63 ) ;
#89 = ORIENTED_EDGE ( 'NONE', *, *, #165, .T. ) ;
#90 = CC_DESIGN_APPROVAL ( #144, ( #52 ) ) ;
#91 = LOCAL_TIME ( 16, 27, 57.00000000000000000, #15 ) ;
#92 = FACE_OUTER_BOUND ( 'NONE', #58, .T. ) ;
#93 = PRODUCT_RELATED_PRODUCT_CATEGORY ( 'detail', '', ( #87 ) ) ;
#94 = EDGE_CURVE ( 'NONE', #166, #174, #155, .T. ) ;
#95 = ORGANIZATION ( 'UNSPECIFIED', 'UNSPECIFIED', '' ) ;
#96 = CC_DESIGN_SECURITY_CLASSIFICATION ( #52, ( #149 ) ) ;
#97 = APPLICATION_PROTOCOL_DEFINITION ( 'international standard', 'config_control_design', 1994, #22 ) ;
#98 = AXIS2_PLACEMENT_3D ( 'NONE', #124, #100, #26 ) ;
#99 = CARTESIAN_POINT ( 'NONE',  ( -12.69999999999999929, 0.0000000000000000000, 1.000000000000000000 ) ) ;
#100 = DIRECTION ( 'NONE',  ( 0.0000000000000000000, 0.0000000000000000000, 1.000000000000000000 ) ) ;
#101 = DIRECTION ( 'NONE',  ( 1.000000000000000000, 0.0000000000000000000, -0.0000000000000000000 ) ) ;
#102 = AXIS2_PLACEMENT_3D ( 'NONE', #151, #25, #101 ) ;
#103 = EDGE_LOOP ( 'NONE', ( #89, #51 ) ) ;
#104 = CALENDAR_DATE ( 2020, 15, 12 ) ;
#105 = CIRCLE ( 'NONE', #88, 12.69999999999999929 ) ;
#106 = AXIS2_PLACEMENT_3D ( 'NONE', #50, #39, #111 ) ;
#107 =( GEOMETRIC_REPRESENTATION_CONTEXT ( 3 ) GLOBAL_UNCERTAINTY_ASSIGNED_CONTEXT ( ( #74 ) ) GLOBAL_UNIT_ASSIGNED_CONTEXT ( ( #34, #59, #137 ) ) REPRESENTATION_CONTEXT ( 'NONE', 'WORKASPACE' ) );
#108 = DIRECTION ( 'NONE',  ( 0.0000000000000000000, 0.0000000000000000000, 1.000000000000000000 ) ) ;
#109 = AXIS2_PLACEMENT_3D ( 'NONE', #161, #128, #65 ) ;
#110 = CIRCLE ( 'NONE', #119, 12.69999999999999929 ) ;
#111 = DIRECTION ( 'NONE',  ( -1.000000000000000000, 0.0000000000000000000, 0.0000000000000000000 ) ) ;
#112 = ADVANCED_FACE ( 'NONE', ( #21 ), #61, .T. ) ;
#113 = APPLICATION_CONTEXT ( 'configuration controlled 3d designs of mechanical parts and assemblies' ) ;
#114 = CALENDAR_DATE ( 2020, 15, 12 ) ;
#115 = EDGE_LOOP ( 'NONE', ( #120, #127 ) ) ;
#116 = PERSON_AND_ORGANIZATION_ROLE ( 'creator' ) ;
#117 = DESIGN_CONTEXT ( 'detailed design', #113, 'design' ) ;
#118 = CC_DESIGN_PERSON_AND_ORGANIZATION_ASSIGNMENT ( #133, #138, ( #131 ) ) ;
#119 = AXIS2_PLACEMENT_3D ( 'NONE', #17, #157, #173 ) ;
#120 = ORIENTED_EDGE ( 'NONE', *, *, #12, .F. ) ;
#121 = MANIFOLD_SOLID_BREP ( 'Boss-Extrude1', #11 ) ;
#122 = COORDINATED_UNIVERSAL_TIME_OFFSET ( 5, 0, .BEHIND. ) ;
#123 = CIRCLE ( 'NONE', #60, 12.69999999999999929 ) ;
#124 = CARTESIAN_POINT ( 'NONE',  ( 0.0000000000000000000, 0.0000000000000000000, 1.000000000000000000 ) ) ;
#125 = CARTESIAN_POINT ( 'NONE',  ( -12.69999999999999929, 0.0000000000000000000, 1.000000000000000000 ) ) ;
#126 = ADVANCED_FACE ( 'NONE', ( #92 ), #70, .T. ) ;
#127 = ORIENTED_EDGE ( 'NONE', *, *, #56, .F. ) ;
#128 = DIRECTION ( 'NONE',  ( -0.0000000000000000000, -0.0000000000000000000, -1.000000000000000000 ) ) ;
#129 = CARTESIAN_POINT ( 'NONE',  ( 12.69999999999999929, 1.555301434917138433E-15, 1.000000000000000000 ) ) ;
#130 = ORIENTED_EDGE ( 'NONE', *, *, #4, .F. ) ;
#131 = PRODUCT_DEFINITION ( 'UNKNOWN', '', #149, #117 ) ;
#132 = DATE_AND_TIME ( #152, #43 ) ;
#133 = PERSON_AND_ORGANIZATION ( #163, #95 ) ;
#134 = EDGE_LOOP ( 'NONE', ( #130, #53, #24, #169 ) ) ;
#135 = SHAPE_DEFINITION_REPRESENTATION ( #30, #167 ) ;
#136 = CC_DESIGN_APPROVAL ( #160, ( #131 ) ) ;
#137 =( NAMED_UNIT ( * ) SI_UNIT ( $, .STERADIAN. ) SOLID_ANGLE_UNIT ( ) );
#138 = PERSON_AND_ORGANIZATION_ROLE ( 'creator' ) ;
#139 = FACE_OUTER_BOUND ( 'NONE', #103, .T. ) ;
#140 = DIRECTION ( 'NONE',  ( -0.0000000000000000000, -0.0000000000000000000, -1.000000000000000000 ) ) ;
#141 = DIRECTION ( 'NONE',  ( 0.0000000000000000000, 0.0000000000000000000, 1.000000000000000000 ) ) ;
#142 = COORDINATED_UNIVERSAL_TIME_OFFSET ( 5, 0, .BEHIND. ) ;
#143 = ADVANCED_FACE ( 'NONE', ( #139 ), #158, .T. ) ;
#144 = APPROVAL ( #10, 'UNSPECIFIED' ) ;
#145 = DATE_TIME_ROLE ( 'classification_date' ) ;
#146 = ORIENTED_EDGE ( 'NONE', *, *, #94, .F. ) ;
#147 = APPROVAL_PERSON_ORGANIZATION ( #55, #144, #27 ) ;
#148 = PERSON_AND_ORGANIZATION ( #163, #95 ) ;
#149 = PRODUCT_DEFINITION_FORMATION_WITH_SPECIFIED_SOURCE ( 'ANY', '', #87, .NOT_KNOWN. ) ;
#150 = VECTOR ( 'NONE', #140, 1000.000000000000000 ) ;
#151 = CARTESIAN_POINT ( 'NONE',  ( 0.0000000000000000000, 0.0000000000000000000, 0.0000000000000000000 ) ) ;
#152 = CALENDAR_DATE ( 2020, 15, 12 ) ;
#153 = CARTESIAN_POINT ( 'NONE',  ( 0.0000000000000000000, 0.0000000000000000000, 1.000000000000000000 ) ) ;
#154 = CALENDAR_DATE ( 2020, 15, 12 ) ;
#155 = LINE ( 'NONE', #129, #150 ) ;
#156 = APPROVAL ( #62, 'UNSPECIFIED' ) ;
#157 = DIRECTION ( 'NONE',  ( 0.0000000000000000000, 0.0000000000000000000, 1.000000000000000000 ) ) ;
#158 = PLANE ( 'NONE',  #98 ) ;
#159 = APPLICATION_PROTOCOL_DEFINITION ( 'international standard', 'config_control_design', 1994, #113 ) ;
#160 = APPROVAL ( #9, 'UNSPECIFIED' ) ;
#161 = CARTESIAN_POINT ( 'NONE',  ( 0.0000000000000000000, 0.0000000000000000000, 1.000000000000000000 ) ) ;
#162 = VERTEX_POINT ( 'NONE', #125 ) ;
#163 = PERSON ( 'UNSPECIFIED', 'UNSPECIFIED', 'UNSPECIFIED', ('UNSPECIFIED'), ('UNSPECIFIED'), ('UNSPECIFIED') ) ;
#164 = CC_DESIGN_PERSON_AND_ORGANIZATION_ASSIGNMENT ( #66, #40, ( #52 ) ) ;
#165 = EDGE_CURVE ( 'NONE', #162, #166, #110, .T. ) ;
#166 = VERTEX_POINT ( 'NONE', #79 ) ;
#167 = ADVANCED_BREP_SHAPE_REPRESENTATION ( 'ISP Flat Parts_16805', ( #121, #75 ), #107 ) ;
#168 = DATE_AND_TIME ( #72, #38 ) ;
#169 = ORIENTED_EDGE ( 'NONE', *, *, #83, .F. ) ;
#170 = DIRECTION ( 'NONE',  ( 1.000000000000000000, 0.0000000000000000000, 0.0000000000000000000 ) ) ;
#171 = PERSON_AND_ORGANIZATION ( #163, #95 ) ;
#172 = CARTESIAN_POINT ( 'NONE',  ( 0.0000000000000000000, 0.0000000000000000000, 0.0000000000000000000 ) ) ;
#173 = DIRECTION ( 'NONE',  ( 1.000000000000000000, 0.0000000000000000000, 0.0000000000000000000 ) ) ;
#174 = VERTEX_POINT ( 'NONE', #7 ) ;
#175 = LINE ( 'NONE', #99, #35 ) ;
ENDSEC;
END-ISO-10303-21;
