ISO-10303-21;
HEADER;
FILE_DESCRIPTION (( 'STEP AP203' ),
    '1' );
FILE_NAME ('20227-E0W.STEP',
    '2009-09-14T20:11:53',
    ( 'Admin' ),
    ( 'Thorlabs, Inc.' ),
    'SwSTEP 2.0',
    'SolidWorks 2007',
    '' );
FILE_SCHEMA (( 'CONFIG_CONTROL_DESIGN' ));
ENDSEC;

DATA;
#1 = ORIENTED_EDGE ( 'NONE', *, *, #4, .T. ) ;
#2 = ORIENTED_EDGE ( 'NONE', *, *, #37, .F. ) ;
#3 = ADVANCED_FACE ( 'NONE', ( #89 ), #88, .T. ) ;
#4 = EDGE_CURVE ( 'NONE', #30, #41, #64, .T. ) ;
#5 = ORIENTED_EDGE ( 'NONE', *, *, #46, .T. ) ;
#6 =( NAMED_UNIT ( * ) SI_UNIT ( $, .STERADIAN. ) SOLID_ANGLE_UNIT ( ) );
#7 = CLOSED_SHELL ( 'NONE', ( #34, #20, #25, #50, #3, #9 ) ) ;
#8 = ORIENTED_EDGE ( 'NONE', *, *, #12, .T. ) ;
#9 = ADVANCED_FACE ( 'NONE', ( #62 ), #103, .T. ) ;
#10 = EDGE_LOOP ( 'NONE', ( #2, #14, #15 ) ) ;
#11 = EDGE_LOOP ( 'NONE', ( #13, #8, #16, #17 ) ) ;
#12 = EDGE_CURVE ( 'NONE', #19, #18, #97, .T. ) ;
#13 = ORIENTED_EDGE ( 'NONE', *, *, #28, .F. ) ;
#14 = ORIENTED_EDGE ( 'NONE', *, *, #43, .T. ) ;
#15 = ORIENTED_EDGE ( 'NONE', *, *, #12, .F. ) ;
#16 = ORIENTED_EDGE ( 'NONE', *, *, #60, .T. ) ;
#17 = ORIENTED_EDGE ( 'NONE', *, *, #4, .F. ) ;
#18 = VERTEX_POINT ( 'NONE', #98 ) ;
#19 = VERTEX_POINT ( 'NONE', #70 ) ;
#20 = ADVANCED_FACE ( 'NONE', ( #69 ), #68, .T. ) ;
#21 = EDGE_LOOP ( 'NONE', ( #22, #36, #24 ) ) ;
#22 = ORIENTED_EDGE ( 'NONE', *, *, #43, .F. ) ;
#23 = VERTEX_POINT ( 'NONE', #80 ) ;
#24 = ORIENTED_EDGE ( 'NONE', *, *, #35, .F. ) ;
#25 = ADVANCED_FACE ( 'NONE', ( #100 ), #74, .F. ) ;
#26 = ORIENTED_EDGE ( 'NONE', *, *, #46, .F. ) ;
#27 = ORIENTED_EDGE ( 'NONE', *, *, #28, .T. ) ;
#28 = EDGE_CURVE ( 'NONE', #19, #30, #86, .T. ) ;
#29 = EDGE_LOOP ( 'NONE', ( #26, #53, #58 ) ) ;
#30 = VERTEX_POINT ( 'NONE', #82 ) ;
#31 = ORIENTED_EDGE ( 'NONE', *, *, #40, .F. ) ;
#32 = VERTEX_POINT ( 'NONE', #81 ) ;
#33 = MANIFOLD_SOLID_BREP ( 'NONE', #7 ) ;
#34 = ADVANCED_FACE ( 'NONE', ( #45 ), #44, .T. ) ;
#35 = EDGE_CURVE ( 'NONE', #18, #19, #131, .T. ) ;
#36 = ORIENTED_EDGE ( 'NONE', *, *, #37, .T. ) ;
#37 = EDGE_CURVE ( 'NONE', #23, #19, #129, .T. ) ;
#38 = EDGE_LOOP ( 'NONE', ( #39, #27, #31, #42 ) ) ;
#39 = ORIENTED_EDGE ( 'NONE', *, *, #35, .T. ) ;
#40 = EDGE_CURVE ( 'NONE', #41, #30, #133, .T. ) ;
#41 = VERTEX_POINT ( 'NONE', #143 ) ;
#42 = ORIENTED_EDGE ( 'NONE', *, *, #60, .F. ) ;
#43 = EDGE_CURVE ( 'NONE', #23, #18, #142, .T. ) ;
#44 = CYLINDRICAL_SURFACE ( 'NONE', #52, 12.70000000000000300 ) ;
#45 = FACE_OUTER_BOUND ( 'NONE', #38, .T. ) ;
#46 = EDGE_CURVE ( 'NONE', #32, #30, #116, .T. ) ;
#47 = UNCERTAINTY_MEASURE_WITH_UNIT (LENGTH_MEASURE( 1.000000000000000100E-005 ), #119, 'distance_accuracy_value', 'NONE');
#48 = EDGE_LOOP ( 'NONE', ( #55, #5, #1 ) ) ;
#49 =( GEOMETRIC_REPRESENTATION_CONTEXT ( 3 ) GLOBAL_UNCERTAINTY_ASSIGNED_CONTEXT ( ( #47 ) ) GLOBAL_UNIT_ASSIGNED_CONTEXT ( ( #119, #118, #6 ) ) REPRESENTATION_CONTEXT ( 'NONE', 'WORKASPACE' ) );
#50 = ADVANCED_FACE ( 'NONE', ( #111 ), #110, .F. ) ;
#51 = ADVANCED_BREP_SHAPE_REPRESENTATION ( '20227-E0W', ( #33, #227 ), #49 ) ;
#52 = AXIS2_PLACEMENT_3D ( 'NONE', #57, #59, #56 ) ;
#53 = ORIENTED_EDGE ( 'NONE', *, *, #54, .T. ) ;
#54 = EDGE_CURVE ( 'NONE', #32, #41, #128, .T. ) ;
#55 = ORIENTED_EDGE ( 'NONE', *, *, #54, .F. ) ;
#56 = DIRECTION ( 'NONE',  ( 0.0000000000000000000, -1.000000000000000000, -1.707404996040164000E-016 ) ) ;
#57 = CARTESIAN_POINT ( 'NONE',  ( 0.0000000000000000000, 0.0000000000000000000, 2.000000000000000000 ) ) ;
#58 = ORIENTED_EDGE ( 'NONE', *, *, #40, .T. ) ;
#59 = DIRECTION ( 'NONE',  ( 0.0000000000000000000, -1.836909530733566100E-016, 1.000000000000000000 ) ) ;
#60 = EDGE_CURVE ( 'NONE', #18, #41, #123, .T. ) ;
#61 = CARTESIAN_POINT ( 'NONE',  ( 0.0000000000000000000, 0.0000000000000000000, 18.96500000000000300 ) ) ;
#62 = FACE_OUTER_BOUND ( 'NONE', #11, .T. ) ;
#63 = DIRECTION ( 'NONE',  ( 0.0000000000000000000, -1.000000000000000000, -1.365923996832131400E-016 ) ) ;
#64 = CIRCLE ( 'NONE', #67, 12.70000000000000300 ) ;
#65 = DIRECTION ( 'NONE',  ( 0.0000000000000000000, -1.836909530733566100E-016, 1.000000000000000000 ) ) ;
#66 = CARTESIAN_POINT ( 'NONE',  ( 0.0000000000000000000, -1.210317809262912700E-015, 8.588880883968059300 ) ) ;
#67 = AXIS2_PLACEMENT_3D ( 'NONE', #66, #65, #63 ) ;
#68 = SPHERICAL_SURFACE ( 'NONE', #79, 20.96500000000000300 ) ;
#69 = FACE_OUTER_BOUND ( 'NONE', #21, .T. ) ;
#70 = CARTESIAN_POINT ( 'NONE',  ( 1.555250069354418900E-015, 12.70000000000000300, 2.284435710983873800 ) ) ;
#71 = DIRECTION ( 'NONE',  ( 0.0000000000000000000, 1.000000000000000000, 2.233453683503035200E-016 ) ) ;
#72 = DIRECTION ( 'NONE',  ( -1.000000000000000000, 0.0000000000000000000, 0.0000000000000000000 ) ) ;
#73 = AXIS2_PLACEMENT_3D ( 'NONE', #99, #72, #71 ) ;
#74 = SPHERICAL_SURFACE ( 'NONE', #73, 15.53399999999999500 ) ;
#75 = CARTESIAN_POINT ( 'NONE',  ( 0.0000000000000000000, 0.0000000000000000000, 2.000000000000000000 ) ) ;
#76 = DIRECTION ( 'NONE',  ( 0.0000000000000000000, -1.000000000000000000, -1.654875722372341300E-016 ) ) ;
#77 = DIRECTION ( 'NONE',  ( 1.000000000000000000, 0.0000000000000000000, 0.0000000000000000000 ) ) ;
#78 = CARTESIAN_POINT ( 'NONE',  ( 0.0000000000000000000, 0.0000000000000000000, 18.96500000000000300 ) ) ;
#79 = AXIS2_PLACEMENT_3D ( 'NONE', #78, #77, #76 ) ;
#80 = CARTESIAN_POINT ( 'NONE',  ( 0.0000000000000000000, 2.567387220788615000E-015, -2.000000000000001800 ) ) ;
#81 = CARTESIAN_POINT ( 'NONE',  ( 0.0000000000000000000, 3.804607020055360500E-015, 1.999999999999998200 ) ) ;
#82 = CARTESIAN_POINT ( 'NONE',  ( 0.0000000000000000000, 12.69999999999999900, 8.588880883968061000 ) ) ;
#83 = DIRECTION ( 'NONE',  ( 0.0000000000000000000, -1.836909530733566100E-016, 1.000000000000000000 ) ) ;
#84 = VECTOR ( 'NONE', #83, 1000.000000000000000 ) ;
#85 = CARTESIAN_POINT ( 'NONE',  ( 1.555250069354419500E-015, 12.70000000000000300, 2.000000000000002200 ) ) ;
#86 = LINE ( 'NONE', #85, #84 ) ;
#87 = DIRECTION ( 'NONE',  ( 0.0000000000000000000, -1.000000000000000000, -1.654875722372341300E-016 ) ) ;
#88 = SPHERICAL_SURFACE ( 'NONE', #102, 20.96500000000000300 ) ;
#89 = FACE_OUTER_BOUND ( 'NONE', #10, .T. ) ;
#90 = CARTESIAN_POINT ( 'NONE',  ( 0.0000000000000000000, -5.224826683872514600E-017, 2.284435710983871500 ) ) ;
#91 = DIRECTION ( 'NONE',  ( 0.0000000000000000000, -1.000000000000000000, -1.707404996040164000E-016 ) ) ;
#92 = DIRECTION ( 'NONE',  ( 0.0000000000000000000, -1.836909530733566100E-016, 1.000000000000000000 ) ) ;
#93 = AXIS2_PLACEMENT_3D ( 'NONE', #75, #92, #91 ) ;
#94 = DIRECTION ( 'NONE',  ( 0.0000000000000000000, -1.000000000000000000, -1.707404996040164000E-016 ) ) ;
#95 = DIRECTION ( 'NONE',  ( 0.0000000000000000000, -1.836909530733566100E-016, 1.000000000000000000 ) ) ;
#96 = AXIS2_PLACEMENT_3D ( 'NONE', #90, #95, #94 ) ;
#97 = CIRCLE ( 'NONE', #96, 12.70000000000000300 ) ;
#98 = CARTESIAN_POINT ( 'NONE',  ( 0.0000000000000000000, -12.69999999999999900, 2.284435710983868000 ) ) ;
#99 = CARTESIAN_POINT ( 'NONE',  ( 0.0000000000000000000, 0.0000000000000000000, 17.53399999999999500 ) ) ;
#100 = FACE_OUTER_BOUND ( 'NONE', #29, .T. ) ;
#101 = DIRECTION ( 'NONE',  ( 1.000000000000000000, 0.0000000000000000000, 0.0000000000000000000 ) ) ;
#102 = AXIS2_PLACEMENT_3D ( 'NONE', #61, #101, #87 ) ;
#103 = CYLINDRICAL_SURFACE ( 'NONE', #93, 12.70000000000000300 ) ;
#104 = DIRECTION ( 'NONE',  ( 0.0000000000000000000, -1.000000000000000000, -1.707404996040164000E-016 ) ) ;
#105 = DIRECTION ( 'NONE',  ( 0.0000000000000000000, -1.836909530733566100E-016, 1.000000000000000000 ) ) ;
#106 = DIRECTION ( 'NONE',  ( 0.0000000000000000000, 1.000000000000000000, 2.233453683503035200E-016 ) ) ;
#107 = DIRECTION ( 'NONE',  ( -1.000000000000000000, 0.0000000000000000000, 0.0000000000000000000 ) ) ;
#108 = CARTESIAN_POINT ( 'NONE',  ( 0.0000000000000000000, 0.0000000000000000000, 17.53399999999999500 ) ) ;
#109 = AXIS2_PLACEMENT_3D ( 'NONE', #108, #107, #106 ) ;
#110 = SPHERICAL_SURFACE ( 'NONE', #109, 15.53399999999999500 ) ;
#111 = FACE_OUTER_BOUND ( 'NONE', #48, .T. ) ;
#112 = DIRECTION ( 'NONE',  ( 0.0000000000000000000, 0.0000000000000000000, -1.000000000000000000 ) ) ;
#113 = DIRECTION ( 'NONE',  ( 1.000000000000000000, 0.0000000000000000000, 0.0000000000000000000 ) ) ;
#114 = CARTESIAN_POINT ( 'NONE',  ( 0.0000000000000000000, 0.0000000000000000000, 17.53399999999999500 ) ) ;
#115 = AXIS2_PLACEMENT_3D ( 'NONE', #114, #113, #112 ) ;
#116 = CIRCLE ( 'NONE', #115, 15.53399999999999500 ) ;
#117 = DIRECTION ( 'NONE',  ( 0.0000000000000000000, 0.0000000000000000000, 1.000000000000000000 ) ) ;
#118 =( NAMED_UNIT ( * ) PLANE_ANGLE_UNIT ( ) SI_UNIT ( $, .RADIAN. ) );
#119 =( LENGTH_UNIT ( ) NAMED_UNIT ( * ) SI_UNIT ( .MILLI., .METRE. ) );
#120 = DIRECTION ( 'NONE',  ( 0.0000000000000000000, -1.836909530733566100E-016, 1.000000000000000000 ) ) ;
#121 = VECTOR ( 'NONE', #120, 1000.000000000000000 ) ;
#122 = CARTESIAN_POINT ( 'NONE',  ( 0.0000000000000000000, -12.70000000000000300, 1.999999999999997800 ) ) ;
#123 = LINE ( 'NONE', #122, #121 ) ;
#124 = DIRECTION ( 'NONE',  ( -1.224606353822377300E-016, -1.000000000000000000, 0.0000000000000000000 ) ) ;
#125 = DIRECTION ( 'NONE',  ( -1.000000000000000000, 1.224606353822377300E-016, 2.249491082733206400E-032 ) ) ;
#126 = CARTESIAN_POINT ( 'NONE',  ( 0.0000000000000000000, 0.0000000000000000000, 17.53399999999999500 ) ) ;
#127 = AXIS2_PLACEMENT_3D ( 'NONE', #126, #125, #124 ) ;
#128 = CIRCLE ( 'NONE', #127, 15.53399999999999500 ) ;
#129 = CIRCLE ( 'NONE', #137, 20.96500000000000300 ) ;
#130 = AXIS2_PLACEMENT_3D ( 'NONE', #138, #105, #104 ) ;
#131 = CIRCLE ( 'NONE', #130, 12.70000000000000300 ) ;
#132 = AXIS2_PLACEMENT_3D ( 'NONE', #146, #145, #144 ) ;
#133 = CIRCLE ( 'NONE', #132, 12.70000000000000300 ) ;
#134 = DIRECTION ( 'NONE',  ( 1.224606353822377300E-016, 1.000000000000000000, 0.0000000000000000000 ) ) ;
#135 = DIRECTION ( 'NONE',  ( 1.000000000000000000, -1.224606353822377300E-016, -2.249491082733206400E-032 ) ) ;
#136 = CARTESIAN_POINT ( 'NONE',  ( 0.0000000000000000000, 0.0000000000000000000, 18.96500000000000300 ) ) ;
#137 = AXIS2_PLACEMENT_3D ( 'NONE', #136, #135, #134 ) ;
#138 = CARTESIAN_POINT ( 'NONE',  ( 0.0000000000000000000, -5.224826683872514600E-017, 2.284435710983871500 ) ) ;
#139 = DIRECTION ( 'NONE',  ( -1.000000000000000000, 0.0000000000000000000, 0.0000000000000000000 ) ) ;
#140 = CARTESIAN_POINT ( 'NONE',  ( 0.0000000000000000000, 0.0000000000000000000, 18.96500000000000300 ) ) ;
#141 = AXIS2_PLACEMENT_3D ( 'NONE', #140, #139, #117 ) ;
#142 = CIRCLE ( 'NONE', #141, 20.96500000000000300 ) ;
#143 = CARTESIAN_POINT ( 'NONE',  ( -1.555250069354419300E-015, -12.69999999999999900, 8.588880883968059300 ) ) ;
#144 = DIRECTION ( 'NONE',  ( 0.0000000000000000000, -1.000000000000000000, -1.365923996832131400E-016 ) ) ;
#145 = DIRECTION ( 'NONE',  ( 0.0000000000000000000, -1.836909530733566100E-016, 1.000000000000000000 ) ) ;
#146 = CARTESIAN_POINT ( 'NONE',  ( 0.0000000000000000000, -1.210317809262912700E-015, 8.588880883968059300 ) ) ;
#147 = DATE_AND_TIME ( #148, #149 ) ;
#148 = CALENDAR_DATE ( 2009, 14, 9 ) ;
#149 = LOCAL_TIME ( 16, 11, 53.00000000000000000, #150 ) ;
#150 = COORDINATED_UNIVERSAL_TIME_OFFSET ( 5, 0, .BEHIND. ) ;
#151 = CC_DESIGN_PERSON_AND_ORGANIZATION_ASSIGNMENT ( #192, #191, ( #187 ) ) ;
#152 = CC_DESIGN_PERSON_AND_ORGANIZATION_ASSIGNMENT ( #154, #153, ( #215 ) ) ;
#153 = PERSON_AND_ORGANIZATION_ROLE ( 'design_owner' ) ;
#154 = PERSON_AND_ORGANIZATION ( #201, #155 ) ;
#155 = ORGANIZATION ( 'UNSPECIFIED', 'UNSPECIFIED', '' ) ;
#156 = CC_DESIGN_SECURITY_CLASSIFICATION ( #178, ( #172 ) ) ;
#157 = CC_DESIGN_APPROVAL ( #165, ( #178 ) ) ;
#158 = APPROVAL_DATE_TIME ( #159, #165 ) ;
#159 = DATE_AND_TIME ( #160, #161 ) ;
#160 = CALENDAR_DATE ( 2009, 14, 9 ) ;
#161 = LOCAL_TIME ( 16, 11, 53.00000000000000000, #162 ) ;
#162 = COORDINATED_UNIVERSAL_TIME_OFFSET ( 5, 0, .BEHIND. ) ;
#163 = APPROVAL_PERSON_ORGANIZATION ( #219, #165, #164 ) ;
#164 = APPROVAL_ROLE ( '' ) ;
#165 = APPROVAL ( #166, 'UNSPECIFIED' ) ;
#166 = APPROVAL_STATUS ( 'not_yet_approved' ) ;
#167 = APPROVAL_PERSON_ORGANIZATION ( #171, #169, #168 ) ;
#168 = APPROVAL_ROLE ( '' ) ;
#169 = APPROVAL ( #170, 'UNSPECIFIED' ) ;
#170 = APPROVAL_STATUS ( 'not_yet_approved' ) ;
#171 = PERSON_AND_ORGANIZATION ( #201, #155 ) ;
#172 = PRODUCT_DEFINITION_FORMATION_WITH_SPECIFIED_SOURCE ( 'ANY', '', #215, .NOT_KNOWN. ) ;
#173 = CC_DESIGN_DATE_AND_TIME_ASSIGNMENT ( #147, #174, ( #187 ) ) ;
#174 = DATE_TIME_ROLE ( 'creation_date' ) ;
#175 = CC_DESIGN_PERSON_AND_ORGANIZATION_ASSIGNMENT ( #177, #176, ( #178 ) ) ;
#176 = PERSON_AND_ORGANIZATION_ROLE ( 'classification_officer' ) ;
#177 = PERSON_AND_ORGANIZATION ( #201, #155 ) ;
#178 = SECURITY_CLASSIFICATION ( '', '', #179 ) ;
#179 = SECURITY_CLASSIFICATION_LEVEL ( 'unclassified' ) ;
#180 = CC_DESIGN_PERSON_AND_ORGANIZATION_ASSIGNMENT ( #182, #181, ( #172 ) ) ;
#181 = PERSON_AND_ORGANIZATION_ROLE ( 'design_supplier' ) ;
#182 = PERSON_AND_ORGANIZATION ( #201, #155 ) ;
#183 = SHAPE_DEFINITION_REPRESENTATION ( #202, #51 ) ;
#184 = APPROVAL_ROLE ( '' ) ;
#185 = APPROVAL_STATUS ( 'not_yet_approved' ) ;
#186 = PERSON_AND_ORGANIZATION ( #201, #155 ) ;
#187 = PRODUCT_DEFINITION ( 'UNKNOWN', '', #172, #188 ) ;
#188 = DESIGN_CONTEXT ( 'detailed design', #190, 'design' ) ;
#189 = APPLICATION_PROTOCOL_DEFINITION ( 'international standard', 'config_control_design', 1994, #190 ) ;
#190 = APPLICATION_CONTEXT ( 'configuration controlled 3d designs of mechanical parts and assemblies' ) ;
#191 = PERSON_AND_ORGANIZATION_ROLE ( 'creator' ) ;
#192 = PERSON_AND_ORGANIZATION ( #201, #155 ) ;
#193 = CC_DESIGN_APPROVAL ( #200, ( #187 ) ) ;
#194 = APPROVAL_DATE_TIME ( #195, #200 ) ;
#195 = DATE_AND_TIME ( #196, #197 ) ;
#196 = CALENDAR_DATE ( 2009, 14, 9 ) ;
#197 = LOCAL_TIME ( 16, 11, 53.00000000000000000, #198 ) ;
#198 = COORDINATED_UNIVERSAL_TIME_OFFSET ( 5, 0, .BEHIND. ) ;
#199 = APPROVAL_PERSON_ORGANIZATION ( #186, #200, #184 ) ;
#200 = APPROVAL ( #185, 'UNSPECIFIED' ) ;
#201 = PERSON ( 'UNSPECIFIED', 'UNSPECIFIED', 'UNSPECIFIED', ('UNSPECIFIED'), ('UNSPECIFIED'), ('UNSPECIFIED') ) ;
#202 = PRODUCT_DEFINITION_SHAPE ( 'NONE', 'NONE',  #187 ) ;
#203 = PRODUCT_RELATED_PRODUCT_CATEGORY ( 'detail', '', ( #215 ) ) ;
#204 = CC_DESIGN_PERSON_AND_ORGANIZATION_ASSIGNMENT ( #206, #205, ( #172 ) ) ;
#205 = PERSON_AND_ORGANIZATION_ROLE ( 'creator' ) ;
#206 = PERSON_AND_ORGANIZATION ( #201, #155 ) ;
#207 = CC_DESIGN_APPROVAL ( #169, ( #172 ) ) ;
#208 = APPROVAL_DATE_TIME ( #209, #169 ) ;
#209 = DATE_AND_TIME ( #210, #211 ) ;
#210 = CALENDAR_DATE ( 2009, 14, 9 ) ;
#211 = LOCAL_TIME ( 16, 11, 53.00000000000000000, #212 ) ;
#212 = COORDINATED_UNIVERSAL_TIME_OFFSET ( 5, 0, .BEHIND. ) ;
#213 = DIRECTION ( 'NONE',  ( 1.000000000000000000, 0.0000000000000000000, 0.0000000000000000000 ) ) ;
#214 = DIRECTION ( 'NONE',  ( 0.0000000000000000000, 0.0000000000000000000, 1.000000000000000000 ) ) ;
#215 = PRODUCT ( '20227-E0W', '20227-E0W', '', ( #216 ) ) ;
#216 = MECHANICAL_CONTEXT ( 'NONE', #218, 'mechanical' ) ;
#217 = APPLICATION_PROTOCOL_DEFINITION ( 'international standard', 'config_control_design', 1994, #218 ) ;
#218 = APPLICATION_CONTEXT ( 'configuration controlled 3d designs of mechanical parts and assemblies' ) ;
#219 = PERSON_AND_ORGANIZATION ( #201, #155 ) ;
#220 = CC_DESIGN_DATE_AND_TIME_ASSIGNMENT ( #222, #221, ( #178 ) ) ;
#221 = DATE_TIME_ROLE ( 'classification_date' ) ;
#222 = DATE_AND_TIME ( #223, #224 ) ;
#223 = CALENDAR_DATE ( 2009, 14, 9 ) ;
#224 = LOCAL_TIME ( 16, 11, 53.00000000000000000, #225 ) ;
#225 = COORDINATED_UNIVERSAL_TIME_OFFSET ( 5, 0, .BEHIND. ) ;
#226 = CARTESIAN_POINT ( 'NONE',  ( 0.0000000000000000000, 0.0000000000000000000, 0.0000000000000000000 ) ) ;
#227 = AXIS2_PLACEMENT_3D ( 'NONE', #226, #214, #213 ) ;
ENDSEC;
END-ISO-10303-21;
