ISO-10303-21;
HEADER;
FILE_DESCRIPTION (( 'STEP AP203' ),
    '1' );
FILE_NAME ('25mm BEAMSPLITTER CUBE TS_13425.step',
    '2020-10-29T14:37:01',
    ( '' ),
    ( '' ),
    'SwSTEP 2.0',
    'SolidWorks 2018',
    '' );
FILE_SCHEMA (( 'CONFIG_CONTROL_DESIGN' ));
ENDSEC;

DATA;
#1 = VECTOR ( 'NONE', #230, 999.9999999999998863 ) ;
#2 = CARTESIAN_POINT ( 'NONE',  ( 12.50000000000000000, 17.67766952966358929, -1.112641391681767256E-15 ) ) ;
#3 = PERSON_AND_ORGANIZATION_ROLE ( 'design_supplier' ) ;
#4 = CC_DESIGN_PERSON_AND_ORGANIZATION_ASSIGNMENT ( #92, #136, ( #61 ) ) ;
#5 = PLANE ( 'NONE',  #172 ) ;
#6 = PRODUCT_DEFINITION_SHAPE ( 'NONE', 'NONE',  #361 ) ;
#7 = PERSON_AND_ORGANIZATION_ROLE ( 'creator' ) ;
#8 = DATE_AND_TIME ( #156, #259 ) ;
#9 = APPROVAL_PERSON_ORGANIZATION ( #94, #160, #279 ) ;
#10 = VECTOR ( 'NONE', #110, 1000.000000000000000 ) ;
#11 = COORDINATED_UNIVERSAL_TIME_OFFSET ( 5, 0, .BEHIND. ) ;
#12 = LOCAL_TIME ( 10, 37, 1.000000000000000000, #256 ) ;
#13 = CC_DESIGN_APPROVAL ( #340, ( #354 ) ) ;
#14 = EDGE_CURVE ( 'NONE', #184, #148, #143, .T. ) ;
#15 = DATE_AND_TIME ( #339, #282 ) ;
#16 = VECTOR ( 'NONE', #68, 1000.000000000000000 ) ;
#17 = DIRECTION ( 'NONE',  ( -1.000000000000000000, -0.0000000000000000000, -0.0000000000000000000 ) ) ;
#18 = CC_DESIGN_PERSON_AND_ORGANIZATION_ASSIGNMENT ( #322, #29, ( #343 ) ) ;
#19 = PRODUCT_DEFINITION_SHAPE ( 'NONE', 'NONE',  #360 ) ;
#20 = COORDINATED_UNIVERSAL_TIME_OFFSET ( 5, 0, .BEHIND. ) ;
#21 = ORIENTED_EDGE ( 'NONE', *, *, #275, .F. ) ;
#22 = DIRECTION ( 'NONE',  ( -1.000000000000000222, 0.0000000000000000000, 5.551115123125782702E-17 ) ) ;
#23 = APPROVAL_DATE_TIME ( #53, #37 ) ;
#24 = DATE_AND_TIME ( #141, #329 ) ;
#25 = VERTEX_POINT ( 'NONE', #229 ) ;
#26 = CC_DESIGN_APPROVAL ( #158, ( #262 ) ) ;
#27 = APPROVAL_ROLE ( '' ) ;
#28 =( LENGTH_UNIT ( ) NAMED_UNIT ( * ) SI_UNIT ( .MILLI., .METRE. ) );
#29 = PERSON_AND_ORGANIZATION_ROLE ( 'classification_officer' ) ;
#30 = CALENDAR_DATE ( 2020, 29, 10 ) ;
#31 = CALENDAR_DATE ( 2020, 29, 10 ) ;
#32 = APPLICATION_CONTEXT ( 'configuration controlled 3d designs of mechanical parts and assemblies' ) ;
#33 = CC_DESIGN_APPROVAL ( #214, ( #137 ) ) ;
#34 = LOCAL_TIME ( 10, 37, 1.000000000000000000, #344 ) ;
#35 = PERSON_AND_ORGANIZATION ( #152, #62 ) ;
#36 = LINE ( 'NONE', #347, #1 ) ;
#37 = APPROVAL ( #52, 'UNSPECIFIED' ) ;
#38 = CC_DESIGN_DATE_AND_TIME_ASSIGNMENT ( #90, #109, ( #343 ) ) ;
#39 = ITEM_DEFINED_TRANSFORMATION ( 'NONE', 'NONE', #325,  #300 ) ;
#40 = VECTOR ( 'NONE', #17, 1000.000000000000000 ) ;
#41 = CARTESIAN_POINT ( 'NONE',  ( 12.50000000000000000, -2.164890140588744579E-15, -17.67766952966377758 ) ) ;
#42 = PERSON_AND_ORGANIZATION ( #152, #62 ) ;
#43 = APPROVAL_PERSON_ORGANIZATION ( #97, #215, #326 ) ;
#44 = AXIS2_PLACEMENT_3D ( 'NONE', #144, #246, #302 ) ;
#45 = CARTESIAN_POINT ( 'NONE',  ( 12.50000000000000000, 17.67766952966358929, -1.112641391681767256E-15 ) ) ;
#46 = VERTEX_POINT ( 'NONE', #210 ) ;
#47 = CALENDAR_DATE ( 2020, 29, 10 ) ;
#48 = PERSON_AND_ORGANIZATION ( #152, #62 ) ;
#49 =( LENGTH_UNIT ( ) NAMED_UNIT ( * ) SI_UNIT ( .MILLI., .METRE. ) );
#50 = DATE_TIME_ROLE ( 'classification_date' ) ;
#51 = PERSON_AND_ORGANIZATION_ROLE ( 'classification_officer' ) ;
#52 = APPROVAL_STATUS ( 'not_yet_approved' ) ;
#53 = DATE_AND_TIME ( #30, #59 ) ;
#54 = DIRECTION ( 'NONE',  ( 0.0000000000000000000, 0.0000000000000000000, 1.000000000000000000 ) ) ;
#55 = LINE ( 'NONE', #196, #63 ) ;
#56 = PERSON_AND_ORGANIZATION_ROLE ( 'design_supplier' ) ;
#57 = EDGE_CURVE ( 'NONE', #25, #198, #190, .T. ) ;
#58 = APPLICATION_PROTOCOL_DEFINITION ( 'international standard', 'config_control_design', 1994, #222 ) ;
#59 = LOCAL_TIME ( 10, 37, 1.000000000000000000, #11 ) ;
#60 = DATE_AND_TIME ( #76, #293 ) ;
#61 = PRODUCT_DEFINITION_FORMATION_WITH_SPECIFIED_SOURCE ( 'ANY', '', #120, .NOT_KNOWN. ) ;
#62 = ORGANIZATION ( 'UNSPECIFIED', 'UNSPECIFIED', '' ) ;
#63 = VECTOR ( 'NONE', #84, 1000.000000000000000 ) ;
#64 = PERSON ( 'NAUO-PER1', 'UNSPECIFIED', 'UNSPECIFIED', ('UNSPECIFIED'), ('UNSPECIFIED'), ('UNSPECIFIED') ) ;
#65 = CC_DESIGN_APPROVAL ( #37, ( #219 ) ) ;
#66 = COORDINATED_UNIVERSAL_TIME_OFFSET ( 5, 0, .BEHIND. ) ;
#67 = APPROVAL_DATE_TIME ( #24, #215 ) ;
#68 = DIRECTION ( 'NONE',  ( 0.0000000000000000000, 0.7071067811865439090, 0.7071067811865512365 ) ) ;
#69 = LINE ( 'NONE', #331, #269 ) ;
#70 = EDGE_CURVE ( 'NONE', #153, #184, #118, .T. ) ;
#71 = PERSON_AND_ORGANIZATION ( #152, #62 ) ;
#72 = ORIENTED_EDGE ( 'NONE', *, *, #70, .T. ) ;
#73 = PLANE ( 'NONE',  #287 ) ;
#74 = APPROVAL ( #165, 'UNSPECIFIED' ) ;
#75 = DIRECTION ( 'NONE',  ( 0.0000000000000000000, -0.7071067811865439090, 0.7071067811865512365 ) ) ;
#76 = CALENDAR_DATE ( 2020, 29, 10 ) ;
#77 = SECURITY_CLASSIFICATION_LEVEL ( 'unclassified' ) ;
#78 = CARTESIAN_POINT ( 'NONE',  ( 0.0000000000000000000, 0.0000000000000000000, 0.0000000000000000000 ) ) ;
#79 = APPROVAL_ROLE ( '' ) ;
#80 = DATE_TIME_ROLE ( 'classification_date' ) ;
#81 = MANIFOLD_SOLID_BREP ( 'Extrude1', #251 ) ;
#82 = ORIENTED_EDGE ( 'NONE', *, *, #57, .T. ) ;
#83 = CC_DESIGN_APPROVAL ( #215, ( #283 ) ) ;
#84 = DIRECTION ( 'NONE',  ( 0.0000000000000000000, 0.7071067811865439090, 0.7071067811865512365 ) ) ;
#85 = PERSON_AND_ORGANIZATION_ROLE ( 'creator' ) ;
#86 = CARTESIAN_POINT ( 'NONE',  ( 0.0000000000000000000, 0.0000000000000000000, 0.0000000000000000000 ) ) ;
#87 = DATE_TIME_ROLE ( 'creation_date' ) ;
#88 = DATE_AND_TIME ( #47, #337 ) ;
#89 = APPROVAL_STATUS ( 'not_yet_approved' ) ;
#90 = DATE_AND_TIME ( #290, #242 ) ;
#91 = EDGE_CURVE ( 'NONE', #198, #153, #36, .T. ) ;
#92 = PERSON_AND_ORGANIZATION ( #152, #62 ) ;
#93 = CC_DESIGN_APPROVAL ( #74, ( #343 ) ) ;
#94 = PERSON_AND_ORGANIZATION ( #152, #62 ) ;
#95 = DIRECTION ( 'NONE',  ( 0.0000000000000000000, 1.000000000000000000, -6.123233995736767268E-17 ) ) ;
#96 = COORDINATED_UNIVERSAL_TIME_OFFSET ( 5, 0, .BEHIND. ) ;
#97 = PERSON_AND_ORGANIZATION ( #152, #62 ) ;
#98 = EDGE_LOOP ( 'NONE', ( #21, #265, #310 ) ) ;
#99 = CARTESIAN_POINT ( 'NONE',  ( 12.50000000000000000, 17.67766952966358929, -1.112641391681767256E-15 ) ) ;
#100 = APPROVAL_DATE_TIME ( #320, #214 ) ;
#101 = LINE ( 'NONE', #332, #353 ) ;
#102 = PRODUCT_RELATED_PRODUCT_CATEGORY ( 'detail', '', ( #286 ) ) ;
#103 = MECHANICAL_CONTEXT ( 'NONE', #200, 'mechanical' ) ;
#104 = DATE_TIME_ROLE ( 'creation_date' ) ;
#105 = LOCAL_TIME ( 10, 37, 1.000000000000000000, #66 ) ;
#106 = EDGE_CURVE ( 'NONE', #153, #25, #177, .T. ) ;
#107 = CARTESIAN_POINT ( 'NONE',  ( 12.50000000000000000, 17.67766952966358573, -3.469446951953614189E-15 ) ) ;
#108 = ORIENTED_EDGE ( 'NONE', *, *, #57, .F. ) ;
#109 = DATE_TIME_ROLE ( 'classification_date' ) ;
#110 = DIRECTION ( 'NONE',  ( -1.000000000000000000, -0.0000000000000000000, -0.0000000000000000000 ) ) ;
#111 = PERSON_AND_ORGANIZATION_ROLE ( 'classification_officer' ) ;
#112 = DIRECTION ( 'NONE',  ( 0.0000000000000000000, 0.0000000000000000000, 1.000000000000000000 ) ) ;
#113 = ORIENTED_EDGE ( 'NONE', *, *, #106, .T. ) ;
#114 = CC_DESIGN_SECURITY_CLASSIFICATION ( #343, ( #61 ) ) ;
#115 = MECHANICAL_CONTEXT ( 'NONE', #222, 'mechanical' ) ;
#116 = APPROVAL_ROLE ( '' ) ;
#117 = COORDINATED_UNIVERSAL_TIME_OFFSET ( 5, 0, .BEHIND. ) ;
#118 = LINE ( 'NONE', #292, #40 ) ;
#119 = CC_DESIGN_DATE_AND_TIME_ASSIGNMENT ( #134, #80, ( #137 ) ) ;
#120 = PRODUCT ( '25mm BEAMSPLITTER CUBE TS_13425', '25mm BEAMSPLITTER CUBE TS_13425', '', ( #115 ) ) ;
#121 = AXIS2_PLACEMENT_3D ( 'NONE', #276, #54, #169 ) ;
#122 = FACE_OUTER_BOUND ( 'NONE', #98, .T. ) ;
#123 = CARTESIAN_POINT ( 'NONE',  ( -12.50000000000000000, -2.164890140588744579E-15, -17.67766952966377758 ) ) ;
#124 = DIRECTION ( 'NONE',  ( 0.0000000000000000000, -6.123233995736767268E-17, -1.000000000000000000 ) ) ;
#125 = APPROVAL_DATE_TIME ( #157, #158 ) ;
#126 = ORIENTED_EDGE ( 'NONE', *, *, #267, .F. ) ;
#127 = UNCERTAINTY_MEASURE_WITH_UNIT (LENGTH_MEASURE( 1.000000000000000082E-05 ), #49, 'distance_accuracy_value', 'NONE');
#128 = DIRECTION ( 'NONE',  ( 0.0000000000000000000, -6.123233995736767268E-17, -1.000000000000000000 ) ) ;
#129 = CC_DESIGN_SECURITY_CLASSIFICATION ( #354, ( #360 ) ) ;
#130 = LOCAL_TIME ( 10, 37, 1.000000000000000000, #117 ) ;
#131 = VECTOR ( 'NONE', #128, 1000.000000000000000 ) ;
#132 = CC_DESIGN_PERSON_AND_ORGANIZATION_ASSIGNMENT ( #35, #301, ( #286 ) ) ;
#133 =( GEOMETRIC_REPRESENTATION_CONTEXT ( 3 ) GLOBAL_UNCERTAINTY_ASSIGNED_CONTEXT ( ( #161 ) ) GLOBAL_UNIT_ASSIGNED_CONTEXT ( ( #28, #244, #355 ) ) REPRESENTATION_CONTEXT ( 'NONE', 'WORKASPACE' ) );
#134 = DATE_AND_TIME ( #351, #105 ) ;
#135 = APPROVAL_DATE_TIME ( #60, #160 ) ;
#136 = PERSON_AND_ORGANIZATION_ROLE ( 'creator' ) ;
#137 = SECURITY_CLASSIFICATION ( '', '', #77 ) ;
#138 =( REPRESENTATION_RELATIONSHIP ('NONE','NONE', #186, #313 ) REPRESENTATION_RELATIONSHIP_WITH_TRANSFORMATION ( #39 )SHAPE_REPRESENTATION_RELATIONSHIP( ) );
#139 = DIRECTION ( 'NONE',  ( 0.0000000000000000000, 0.0000000000000000000, 1.000000000000000000 ) ) ;
#140 = CC_DESIGN_DATE_AND_TIME_ASSIGNMENT ( #15, #87, ( #262 ) ) ;
#141 = CALENDAR_DATE ( 2020, 29, 10 ) ;
#142 = DIRECTION ( 'NONE',  ( -1.000000000000000000, 0.0000000000000000000, 0.0000000000000000000 ) ) ;
#143 = LINE ( 'NONE', #234, #131 ) ;
#144 = CARTESIAN_POINT ( 'NONE',  ( 12.50000000000000000, -2.164890140588744579E-15, -17.67766952966377758 ) ) ;
#145 = APPROVAL_PERSON_ORGANIZATION ( #341, #340, #194 ) ;
#146 = PERSON_AND_ORGANIZATION ( #152, #62 ) ;
#147 = CC_DESIGN_PERSON_AND_ORGANIZATION_ASSIGNMENT ( #183, #299, ( #137 ) ) ;
#148 = VERTEX_POINT ( 'NONE', #123 ) ;
#149 = ADVANCED_FACE ( 'NONE', ( #323 ), #289, .F. ) ;
#150 = AXIS2_PLACEMENT_3D ( 'NONE', #261, #95, #346 ) ;
#151 = DATE_AND_TIME ( #309, #166 ) ;
#152 = PERSON ( 'UNSPECIFIED', 'UNSPECIFIED', 'UNSPECIFIED', ('UNSPECIFIED'), ('UNSPECIFIED'), ('UNSPECIFIED') ) ;
#153 = VERTEX_POINT ( 'NONE', #321 ) ;
#154 = CC_DESIGN_DATE_AND_TIME_ASSIGNMENT ( #334, #50, ( #354 ) ) ;
#155 = PERSON ( 'NAUO-PER2', 'UNSPECIFIED', 'UNSPECIFIED', ('UNSPECIFIED'), ('UNSPECIFIED'), ('UNSPECIFIED') ) ;
#156 = CALENDAR_DATE ( 2020, 29, 10 ) ;
#157 = DATE_AND_TIME ( #31, #12 ) ;
#158 = APPROVAL ( #89, 'UNSPECIFIED' ) ;
#159 = ORIENTED_EDGE ( 'NONE', *, *, #14, .T. ) ;
#160 = APPROVAL ( #311, 'UNSPECIFIED' ) ;
#161 = UNCERTAINTY_MEASURE_WITH_UNIT (LENGTH_MEASURE( 1.000000000000000082E-05 ), #28, 'distance_accuracy_value', 'NONE');
#162 = COORDINATED_UNIVERSAL_TIME_OFFSET ( 5, 0, .BEHIND. ) ;
#163 = APPROVAL_STATUS ( 'not_yet_approved' ) ;
#164 = AXIS2_PLACEMENT_3D ( 'NONE', #235, #142, #112 ) ;
#165 = APPROVAL_STATUS ( 'not_yet_approved' ) ;
#166 = LOCAL_TIME ( 10, 37, 1.000000000000000000, #233 ) ;
#167 = ORIENTED_EDGE ( 'NONE', *, *, #195, .F. ) ;
#168 = PLANE ( 'NONE',  #164 ) ;
#169 = DIRECTION ( 'NONE',  ( 1.000000000000000000, 0.0000000000000000000, 0.0000000000000000000 ) ) ;
#170 = SECURITY_CLASSIFICATION_LEVEL ( 'unclassified' ) ;
#171 = DIRECTION ( 'NONE',  ( 1.000000000000000000, 0.0000000000000000000, 0.0000000000000000000 ) ) ;
#172 = AXIS2_PLACEMENT_3D ( 'NONE', #107, #193, #199 ) ;
#173 = EDGE_LOOP ( 'NONE', ( #260, #167, #108, #205 ) ) ;
#174 = APPROVAL_PERSON_ORGANIZATION ( #183, #214, #218 ) ;
#175 = APPROVAL_DATE_TIME ( #272, #74 ) ;
#176 = CC_DESIGN_DATE_AND_TIME_ASSIGNMENT ( #151, #104, ( #283 ) ) ;
#177 = LINE ( 'NONE', #291, #217 ) ;
#178 = CC_DESIGN_PERSON_AND_ORGANIZATION_ASSIGNMENT ( #146, #3, ( #61 ) ) ;
#179 = DESIGN_CONTEXT ( 'detailed design', #306, 'design' ) ;
#180 = ITEM_DEFINED_TRANSFORMATION ( 'NONE', 'NONE', #232,  #300 ) ;
#181 = ORIENTED_EDGE ( 'NONE', *, *, #106, .F. ) ;
#182 = ORIENTED_EDGE ( 'NONE', *, *, #275, .T. ) ;
#183 = PERSON_AND_ORGANIZATION ( #155, #248 ) ;
#184 = VERTEX_POINT ( 'NONE', #231 ) ;
#185 = EDGE_CURVE ( 'NONE', #148, #46, #55, .T. ) ;
#186 = SHAPE_REPRESENTATION ( '25mm BEAMSPLITTER CUBE TS_13425', ( #258, #325, #232 ), #238 ) ;
#187 = PERSON_AND_ORGANIZATION ( #152, #62 ) ;
#188 = SHAPE_DEFINITION_REPRESENTATION ( #239, #313 ) ;
#189 = CARTESIAN_POINT ( 'NONE',  ( 0.0000000000000000000, 0.0000000000000000000, 0.0000000000000000000 ) ) ;
#190 = LINE ( 'NONE', #41, #16 ) ;
#191 = SECURITY_CLASSIFICATION_LEVEL ( 'unclassified' ) ;
#192 = CC_DESIGN_PERSON_AND_ORGANIZATION_ASSIGNMENT ( #187, #56, ( #243 ) ) ;
#193 = DIRECTION ( 'NONE',  ( -1.000000000000000000, 0.0000000000000000000, 0.0000000000000000000 ) ) ;
#194 = APPROVAL_ROLE ( '' ) ;
#195 = EDGE_CURVE ( 'NONE', #198, #46, #342, .T. ) ;
#196 = CARTESIAN_POINT ( 'NONE',  ( -12.50000000000000000, -2.164890140588744579E-15, -17.67766952966377758 ) ) ;
#197 = APPLICATION_PROTOCOL_DEFINITION ( 'international standard', 'config_control_design', 1994, #200 ) ;
#198 = VERTEX_POINT ( 'NONE', #45 ) ;
#199 = DIRECTION ( 'NONE',  ( 0.0000000000000000000, 0.0000000000000000000, 1.000000000000000000 ) ) ;
#200 = APPLICATION_CONTEXT ( 'configuration controlled 3d designs of mechanical parts and assemblies' ) ;
#201 = ADVANCED_FACE ( 'NONE', ( #122 ), #168, .T. ) ;
#202 = SHAPE_DEFINITION_REPRESENTATION ( #270, #186 ) ;
#203 = EDGE_LOOP ( 'NONE', ( #226, #113, #82 ) ) ;
#204 = PERSON_AND_ORGANIZATION ( #152, #62 ) ;
#205 = ORIENTED_EDGE ( 'NONE', *, *, #267, .T. ) ;
#206 = APPROVAL_DATE_TIME ( #88, #273 ) ;
#207 = CC_DESIGN_APPROVAL ( #160, ( #61 ) ) ;
#208 = PERSON_AND_ORGANIZATION ( #152, #62 ) ;
#209 = EDGE_LOOP ( 'NONE', ( #159, #126, #181, #72 ) ) ;
#210 = CARTESIAN_POINT ( 'NONE',  ( -12.50000000000000000, 17.67766952966358929, -1.112641391681767256E-15 ) ) ;
#211 = ORIENTED_EDGE ( 'NONE', *, *, #70, .F. ) ;
#212 = CALENDAR_DATE ( 2020, 29, 10 ) ;
#213 = COORDINATED_UNIVERSAL_TIME_OFFSET ( 5, 0, .BEHIND. ) ;
#214 = APPROVAL ( #356, 'UNKNOWN' ) ;
#215 = APPROVAL ( #163, 'UNSPECIFIED' ) ;
#216 = DIRECTION ( 'NONE',  ( 1.000000000000000000, 0.0000000000000000000, 0.0000000000000000000 ) ) ;
#217 = VECTOR ( 'NONE', #124, 1000.000000000000000 ) ;
#218 = APPROVAL_ROLE ( '' ) ;
#219 = SECURITY_CLASSIFICATION ( '', '', #191 ) ;
#220 = APPLICATION_PROTOCOL_DEFINITION ( 'international standard', 'config_control_design', 1994, #306 ) ;
#221 = DESIGN_CONTEXT ( 'detailed design', #32, 'design' ) ;
#222 = APPLICATION_CONTEXT ( 'configuration controlled 3d designs of mechanical parts and assemblies' ) ;
#223 =( NAMED_UNIT ( * ) SI_UNIT ( $, .STERADIAN. ) SOLID_ANGLE_UNIT ( ) );
#224 = DATE_AND_TIME ( #288, #130 ) ;
#225 = APPROVAL_PERSON_ORGANIZATION ( #304, #74, #328 ) ;
#226 = ORIENTED_EDGE ( 'NONE', *, *, #91, .T. ) ;
#227 = CC_DESIGN_PERSON_AND_ORGANIZATION_ASSIGNMENT ( #263, #303, ( #243 ) ) ;
#228 = APPROVAL_PERSON_ORGANIZATION ( #71, #273, #79 ) ;
#229 = CARTESIAN_POINT ( 'NONE',  ( 12.50000000000000000, -2.164890140588744579E-15, -17.67766952966377758 ) ) ;
#230 = DIRECTION ( 'NONE',  ( 0.0000000000000000000, -0.7071067811865439090, 0.7071067811865512365 ) ) ;
#231 = CARTESIAN_POINT ( 'NONE',  ( -12.50000000000000000, 0.0000000000000000000, 17.67766952966377758 ) ) ;
#232 = AXIS2_PLACEMENT_3D ( 'NONE', #86, #22, #295 ) ;
#233 = COORDINATED_UNIVERSAL_TIME_OFFSET ( 5, 0, .BEHIND. ) ;
#234 = CARTESIAN_POINT ( 'NONE',  ( -12.50000000000000000, 0.0000000000000000000, 17.67766952966377758 ) ) ;
#235 = CARTESIAN_POINT ( 'NONE',  ( -12.50000000000000000, 17.67766952966358573, -3.469446951953614189E-15 ) ) ;
#236 = CC_DESIGN_SECURITY_CLASSIFICATION ( #137, ( #361 ) ) ;
#237 = COORDINATED_UNIVERSAL_TIME_OFFSET ( 5, 0, .BEHIND. ) ;
#238 =( GEOMETRIC_REPRESENTATION_CONTEXT ( 3 ) GLOBAL_UNCERTAINTY_ASSIGNED_CONTEXT ( ( #127 ) ) GLOBAL_UNIT_ASSIGNED_CONTEXT ( ( #49, #240, #223 ) ) REPRESENTATION_CONTEXT ( 'NONE', 'WORKASPACE' ) );
#239 = PRODUCT_DEFINITION_SHAPE ( 'NONE', 'NONE',  #283 ) ;
#240 =( NAMED_UNIT ( * ) PLANE_ANGLE_UNIT ( ) SI_UNIT ( $, .RADIAN. ) );
#241 = APPROVAL_DATE_TIME ( #8, #340 ) ;
#242 = LOCAL_TIME ( 10, 37, 1.000000000000000000, #162 ) ;
#243 = PRODUCT_DEFINITION_FORMATION_WITH_SPECIFIED_SOURCE ( 'ANY', '', #286, .NOT_KNOWN. ) ;
#244 =( NAMED_UNIT ( * ) PLANE_ANGLE_UNIT ( ) SI_UNIT ( $, .RADIAN. ) );
#245 = APPROVAL_STATUS ( 'not_yet_approved' ) ;
#246 = DIRECTION ( 'NONE',  ( 0.0000000000000000000, -0.7071067811865512365, 0.7071067811865439090 ) ) ;
#247 = DIRECTION ( 'NONE',  ( 0.0000000000000000000, 0.0000000000000000000, -1.000000000000000000 ) ) ;
#248 = ORGANIZATION ( 'NAUO-ORG2', 'UNSPECIFIED', 'UNSPECIFIED' ) ;
#249 = PERSON_AND_ORGANIZATION_ROLE ( 'design_owner' ) ;
#250 = EDGE_LOOP ( 'NONE', ( #182, #211, #257, #315 ) ) ;
#251 = CLOSED_SHELL ( 'NONE', ( #317, #149, #253, #255, #201 ) ) ;
#252 = DIRECTION ( 'NONE',  ( 0.0000000000000000000, 0.0000000000000000000, 1.000000000000000000 ) ) ;
#253 = ADVANCED_FACE ( 'NONE', ( #294 ), #274, .F. ) ;
#254 = CONTEXT_DEPENDENT_SHAPE_REPRESENTATION ( #138, #19 ) ;
#255 = ADVANCED_FACE ( 'NONE', ( #285 ), #5, .F. ) ;
#256 = COORDINATED_UNIVERSAL_TIME_OFFSET ( 5, 0, .BEHIND. ) ;
#257 = ORIENTED_EDGE ( 'NONE', *, *, #91, .F. ) ;
#258 = AXIS2_PLACEMENT_3D ( 'NONE', #357, #252, #336 ) ;
#259 = LOCAL_TIME ( 10, 37, 1.000000000000000000, #277 ) ;
#260 = ORIENTED_EDGE ( 'NONE', *, *, #185, .T. ) ;
#261 = CARTESIAN_POINT ( 'NONE',  ( 12.50000000000000000, 0.0000000000000000000, 17.67766952966377758 ) ) ;
#262 = PRODUCT_DEFINITION ( 'UNKNOWN', '', #61, #221 ) ;
#263 = PERSON_AND_ORGANIZATION ( #152, #62 ) ;
#264 = COORDINATED_UNIVERSAL_TIME_OFFSET ( 5, 0, .BEHIND. ) ;
#265 = ORIENTED_EDGE ( 'NONE', *, *, #185, .F. ) ;
#266 = CC_DESIGN_APPROVAL ( #273, ( #243 ) ) ;
#267 = EDGE_CURVE ( 'NONE', #25, #148, #69, .T. ) ;
#268 = CONTEXT_DEPENDENT_SHAPE_REPRESENTATION ( #333, #6 ) ;
#269 = VECTOR ( 'NONE', #308, 1000.000000000000000 ) ;
#270 = PRODUCT_DEFINITION_SHAPE ( 'NONE', 'NONE',  #262 ) ;
#271 = CALENDAR_DATE ( 2020, 29, 10 ) ;
#272 = DATE_AND_TIME ( #284, #345 ) ;
#273 = APPROVAL ( #359, 'UNSPECIFIED' ) ;
#274 = PLANE ( 'NONE',  #44 ) ;
#275 = EDGE_CURVE ( 'NONE', #46, #184, #101, .T. ) ;
#276 = CARTESIAN_POINT ( 'NONE',  ( 0.0000000000000000000, 0.0000000000000000000, 0.0000000000000000000 ) ) ;
#277 = COORDINATED_UNIVERSAL_TIME_OFFSET ( 5, 0, .BEHIND. ) ;
#278 = CC_DESIGN_PERSON_AND_ORGANIZATION_ASSIGNMENT ( #314, #85, ( #283 ) ) ;
#279 = APPROVAL_ROLE ( '' ) ;
#280 = CC_DESIGN_PERSON_AND_ORGANIZATION_ASSIGNMENT ( #204, #51, ( #219 ) ) ;
#281 = APPLICATION_PROTOCOL_DEFINITION ( 'international standard', 'config_control_design', 1994, #32 ) ;
#282 = LOCAL_TIME ( 10, 37, 1.000000000000000000, #237 ) ;
#283 = PRODUCT_DEFINITION ( 'UNKNOWN', '', #243, #179 ) ;
#284 = CALENDAR_DATE ( 2020, 29, 10 ) ;
#285 = FACE_OUTER_BOUND ( 'NONE', #203, .T. ) ;
#286 = PRODUCT ( '25x25 Right Angle Prism Master', '25x25 Right Angle Prism Master', '', ( #103 ) ) ;
#287 = AXIS2_PLACEMENT_3D ( 'NONE', #99, #305, #324 ) ;
#288 = CALENDAR_DATE ( 2020, 29, 10 ) ;
#289 = PLANE ( 'NONE',  #150 ) ;
#290 = CALENDAR_DATE ( 2020, 29, 10 ) ;
#291 = CARTESIAN_POINT ( 'NONE',  ( 12.50000000000000000, 0.0000000000000000000, 17.67766952966377758 ) ) ;
#292 = CARTESIAN_POINT ( 'NONE',  ( 12.50000000000000000, 0.0000000000000000000, 17.67766952966377758 ) ) ;
#293 = LOCAL_TIME ( 10, 37, 1.000000000000000000, #264 ) ;
#294 = FACE_OUTER_BOUND ( 'NONE', #173, .T. ) ;
#295 = DIRECTION ( 'NONE',  ( -5.551115123125782702E-17, 0.0000000000000000000, -1.000000000000000222 ) ) ;
#296 = CC_DESIGN_PERSON_AND_ORGANIZATION_ASSIGNMENT ( #341, #111, ( #354 ) ) ;
#297 = COORDINATED_UNIVERSAL_TIME_OFFSET ( 5, 0, .BEHIND. ) ;
#298 = SHAPE_REPRESENTATION_RELATIONSHIP ( 'NONE' , 'NONE' ,  #313, #316 ) ;
#299 = PERSON_AND_ORGANIZATION_ROLE ( 'classification_officer' ) ;
#300 = AXIS2_PLACEMENT_3D ( 'NONE', #189, #139, #216 ) ;
#301 = PERSON_AND_ORGANIZATION_ROLE ( 'design_owner' ) ;
#302 = DIRECTION ( 'NONE',  ( 0.0000000000000000000, -0.7071067811865439090, -0.7071067811865512365 ) ) ;
#303 = PERSON_AND_ORGANIZATION_ROLE ( 'creator' ) ;
#304 = PERSON_AND_ORGANIZATION ( #152, #62 ) ;
#305 = DIRECTION ( 'NONE',  ( 0.0000000000000000000, -0.7071067811865512365, -0.7071067811865439090 ) ) ;
#306 = APPLICATION_CONTEXT ( 'configuration controlled 3d designs of mechanical parts and assemblies' ) ;
#307 = CC_DESIGN_PERSON_AND_ORGANIZATION_ASSIGNMENT ( #319, #7, ( #262 ) ) ;
#308 = DIRECTION ( 'NONE',  ( -1.000000000000000000, -0.0000000000000000000, -0.0000000000000000000 ) ) ;
#309 = CALENDAR_DATE ( 2020, 29, 10 ) ;
#310 = ORIENTED_EDGE ( 'NONE', *, *, #14, .F. ) ;
#311 = APPROVAL_STATUS ( 'not_yet_approved' ) ;
#312 = CC_DESIGN_SECURITY_CLASSIFICATION ( #219, ( #243 ) ) ;
#313 = SHAPE_REPRESENTATION ( '25x25 Right Angle Prism Master', ( #300 ), #133 ) ;
#314 = PERSON_AND_ORGANIZATION ( #152, #62 ) ;
#315 = ORIENTED_EDGE ( 'NONE', *, *, #195, .T. ) ;
#316 = ADVANCED_BREP_SHAPE_REPRESENTATION ( '', ( #81, #300 ), #133 ) ;
#317 = ADVANCED_FACE ( 'NONE', ( #335 ), #73, .F. ) ;
#318 = LOCAL_TIME ( 10, 37, 1.000000000000000000, #297 ) ;
#319 = PERSON_AND_ORGANIZATION ( #152, #62 ) ;
#320 = DATE_AND_TIME ( #271, #34 ) ;
#321 = CARTESIAN_POINT ( 'NONE',  ( 12.50000000000000000, 0.0000000000000000000, 17.67766952966377758 ) ) ;
#322 = PERSON_AND_ORGANIZATION ( #152, #62 ) ;
#323 = FACE_OUTER_BOUND ( 'NONE', #209, .T. ) ;
#324 = DIRECTION ( 'NONE',  ( 0.0000000000000000000, 0.7071067811865439090, -0.7071067811865512365 ) ) ;
#325 = AXIS2_PLACEMENT_3D ( 'NONE', #78, #171, #247 ) ;
#326 = APPROVAL_ROLE ( '' ) ;
#327 = ORGANIZATION ( 'NAUO-ORG1', 'UNSPECIFIED', 'UNSPECIFIED' ) ;
#328 = APPROVAL_ROLE ( '' ) ;
#329 = LOCAL_TIME ( 10, 37, 1.000000000000000000, #20 ) ;
#330 = DATE_TIME_ROLE ( 'classification_date' ) ;
#331 = CARTESIAN_POINT ( 'NONE',  ( 12.50000000000000000, -2.164890140588744579E-15, -17.67766952966377758 ) ) ;
#332 = CARTESIAN_POINT ( 'NONE',  ( -12.50000000000000000, 17.67766952966358929, -1.112641391681767256E-15 ) ) ;
#333 =( REPRESENTATION_RELATIONSHIP ('NONE','NONE', #186, #313 ) REPRESENTATION_RELATIONSHIP_WITH_TRANSFORMATION ( #180 )SHAPE_REPRESENTATION_RELATIONSHIP( ) );
#334 = DATE_AND_TIME ( #212, #318 ) ;
#335 = FACE_OUTER_BOUND ( 'NONE', #250, .T. ) ;
#336 = DIRECTION ( 'NONE',  ( 1.000000000000000000, 0.0000000000000000000, 0.0000000000000000000 ) ) ;
#337 = LOCAL_TIME ( 10, 37, 1.000000000000000000, #96 ) ;
#338 = PRODUCT_RELATED_PRODUCT_CATEGORY ( 'detail', '', ( #120 ) ) ;
#339 = CALENDAR_DATE ( 2020, 29, 10 ) ;
#340 = APPROVAL ( #245, 'UNKNOWN' ) ;
#341 = PERSON_AND_ORGANIZATION ( #64, #327 ) ;
#342 = LINE ( 'NONE', #2, #10 ) ;
#343 = SECURITY_CLASSIFICATION ( '', '', #170 ) ;
#344 = COORDINATED_UNIVERSAL_TIME_OFFSET ( 5, 0, .BEHIND. ) ;
#345 = LOCAL_TIME ( 10, 37, 1.000000000000000000, #213 ) ;
#346 = DIRECTION ( 'NONE',  ( 0.0000000000000000000, 6.123233995736767268E-17, 1.000000000000000000 ) ) ;
#347 = CARTESIAN_POINT ( 'NONE',  ( 12.50000000000000000, 17.67766952966358929, -1.112641391681767256E-15 ) ) ;
#348 = CC_DESIGN_PERSON_AND_ORGANIZATION_ASSIGNMENT ( #48, #249, ( #120 ) ) ;
#349 = APPROVAL_PERSON_ORGANIZATION ( #42, #37, #27 ) ;
#350 = CC_DESIGN_DATE_AND_TIME_ASSIGNMENT ( #224, #330, ( #219 ) ) ;
#351 = CALENDAR_DATE ( 2020, 29, 10 ) ;
#352 = APPROVAL_PERSON_ORGANIZATION ( #208, #158, #116 ) ;
#353 = VECTOR ( 'NONE', #75, 999.9999999999998863 ) ;
#354 = SECURITY_CLASSIFICATION ( '', '', #358 ) ;
#355 =( NAMED_UNIT ( * ) SI_UNIT ( $, .STERADIAN. ) SOLID_ANGLE_UNIT ( ) );
#356 = APPROVAL_STATUS ( 'not_yet_approved' ) ;
#357 = CARTESIAN_POINT ( 'NONE',  ( 0.0000000000000000000, 0.0000000000000000000, 0.0000000000000000000 ) ) ;
#358 = SECURITY_CLASSIFICATION_LEVEL ( 'unclassified' ) ;
#359 = APPROVAL_STATUS ( 'not_yet_approved' ) ;
#360 = NEXT_ASSEMBLY_USAGE_OCCURRENCE ( 'NAUO1', ' ', ' ', #262, #283, $ ) ;
#361 = NEXT_ASSEMBLY_USAGE_OCCURRENCE ( 'NAUO2', ' ', ' ', #262, #283, $ ) ;
ENDSEC;
END-ISO-10303-21;
