ISO-10303-21;
HEADER;
FILE_DESCRIPTION (( 'STEP AP203' ),
    '1' );
FILE_NAME ('20173-E0W.STEP',
    '2018-06-01T18:08:16',
    ( 'admin' ),
    ( '' ),
    'SwSTEP 2.0',
    'SolidWorks 2016',
    '' );
FILE_SCHEMA (( 'CONFIG_CONTROL_DESIGN' ));
ENDSEC;

DATA;
#1 = PERSON_AND_ORGANIZATION ( #204, #210 ) ;
#2 = LOCAL_TIME ( 14, 8, 16.00000000000000000, #164 ) ;
#3 = CC_DESIGN_APPROVAL ( #316, ( #263 ) ) ;
#4 = DIRECTION ( 'NONE',  ( 7.815722128378791500E-017, 0.6382021439830978200, 0.7698688352020604000 ) ) ;
#5 = EDGE_CURVE ( 'NONE', #92, #212, #140, .T. ) ;
#6 = DIRECTION ( 'NONE',  ( -0.0000000000000000000, -1.836909530733566100E-016, 1.000000000000000000 ) ) ;
#7 = PRODUCT_DEFINITION_SHAPE ( 'NONE', 'NONE',  #91 ) ;
#8 = DATE_AND_TIME ( #317, #33 ) ;
#9 = CIRCLE ( 'NONE', #150, 0.6102362204724413000 ) ;
#10 = DIRECTION ( 'NONE',  ( 0.0000000000000000000, -1.000000000000000000, -2.048885995248197400E-016 ) ) ;
#11 = CARTESIAN_POINT ( 'NONE',  ( 0.0000000000000000000, 2.292409638218432500E-017, 0.1955445885838015500 ) ) ;
#12 = AXIS2_PLACEMENT_3D ( 'NONE', #179, #139, #260 ) ;
#13 = ORIENTED_EDGE ( 'NONE', *, *, #19, .F. ) ;
#14 = ORIENTED_EDGE ( 'NONE', *, *, #171, .T. ) ;
#15 = ORIENTED_EDGE ( 'NONE', *, *, #230, .F. ) ;
#16 = CC_DESIGN_SECURITY_CLASSIFICATION ( #263, ( #175 ) ) ;
#17 = DIRECTION ( 'NONE',  ( -1.000000000000000000, 0.0000000000000000000, 0.0000000000000000000 ) ) ;
#18 = ORIENTED_EDGE ( 'NONE', *, *, #230, .T. ) ;
#19 = EDGE_CURVE ( 'NONE', #92, #155, #295, .T. ) ;
#20 = VECTOR ( 'NONE', #208, 39.37007874015748100 ) ;
#21 = VECTOR ( 'NONE', #247, 39.37007874015747400 ) ;
#22 = APPROVAL_DATE_TIME ( #252, #316 ) ;
#23 = DIRECTION ( 'NONE',  ( 0.0000000000000000000, -1.000000000000000000, -2.081042499479454300E-016 ) ) ;
#24 = VECTOR ( 'NONE', #239, 39.37007874015748100 ) ;
#25 = VERTEX_POINT ( 'NONE', #176 ) ;
#26 =( NAMED_UNIT ( * ) PLANE_ANGLE_UNIT ( ) SI_UNIT ( $, .RADIAN. ) );
#27 = AXIS2_PLACEMENT_3D ( 'NONE', #99, #314, #83 ) ;
#28 = DATE_AND_TIME ( #259, #276 ) ;
#29 = ORIENTED_EDGE ( 'NONE', *, *, #120, .F. ) ;
#30 = EDGE_LOOP ( 'NONE', ( #187, #240, #95 ) ) ;
#31 = CARTESIAN_POINT ( 'NONE',  ( 0.0000000000000000000, 6.829619984160658000E-017, 2.487991022767897900 ) ) ;
#32 = PRODUCT_RELATED_PRODUCT_CATEGORY ( 'detail', '', ( #301 ) ) ;
#33 = LOCAL_TIME ( 14, 8, 16.00000000000000000, #67 ) ;
#34 = EDGE_CURVE ( 'NONE', #155, #127, #81, .T. ) ;
#35 = DIRECTION ( 'NONE',  ( 1.000000000000000000, -1.224646799147353200E-016, -2.249565377136128300E-032 ) ) ;
#36 = CIRCLE ( 'NONE', #202, 0.5000000000000000000 ) ;
#37 = ADVANCED_FACE ( 'NONE', ( #287 ), #151, .T. ) ;
#38 = ORIENTED_EDGE ( 'NONE', *, *, #258, .T. ) ;
#39 = DIRECTION ( 'NONE',  ( 0.0000000000000000000, 1.836909530733566100E-016, -1.000000000000000000 ) ) ;
#40 = CARTESIAN_POINT ( 'NONE',  ( 0.0000000000000000000, 6.829619984160658000E-017, 2.487991022767897900 ) ) ;
#41 = DIRECTION ( 'NONE',  ( 0.0000000000000000000, 1.000000000000000000, 2.048885995248197400E-016 ) ) ;
#42 = APPLICATION_PROTOCOL_DEFINITION ( 'international standard', 'config_control_design', 1994, #298 ) ;
#43 = SECURITY_CLASSIFICATION_LEVEL ( 'unclassified' ) ;
#44 = FACE_OUTER_BOUND ( 'NONE', #76, .T. ) ;
#45 = CARTESIAN_POINT ( 'NONE',  ( 0.0000000000000000000, 0.0000000000000000000, 0.0000000000000000000 ) ) ;
#46 = DIRECTION ( 'NONE',  ( -1.224646799147353500E-016, -1.000000000000000000, 0.0000000000000000000 ) ) ;
#47 = AXIS2_PLACEMENT_3D ( 'NONE', #40, #35, #278 ) ;
#48 = EDGE_LOOP ( 'NONE', ( #242, #315, #165, #280 ) ) ;
#49 = DATE_AND_TIME ( #282, #274 ) ;
#50 = DIRECTION ( 'NONE',  ( -0.0000000000000000000, -1.836909530733587800E-016, 1.000000000000000000 ) ) ;
#51 = ORIENTED_EDGE ( 'NONE', *, *, #243, .T. ) ;
#52 = VERTEX_POINT ( 'NONE', #58 ) ;
#53 = EDGE_LOOP ( 'NONE', ( #56, #122, #182 ) ) ;
#54 = DIRECTION ( 'NONE',  ( 0.0000000000000000000, 1.836909530733566100E-016, -1.000000000000000000 ) ) ;
#55 = EDGE_CURVE ( 'NONE', #25, #104, #284, .T. ) ;
#56 = ORIENTED_EDGE ( 'NONE', *, *, #171, .F. ) ;
#57 = EDGE_LOOP ( 'NONE', ( #13, #134, #201, #51 ) ) ;
#58 = CARTESIAN_POINT ( 'NONE',  ( 0.0000000000000000000, 2.177572644863399900E-016, -0.05145779612973929600 ) ) ;
#59 = AXIS2_PLACEMENT_3D ( 'NONE', #45, #323, #275 ) ;
#60 = CALENDAR_DATE ( 2018, 1, 6 ) ;
#61 = CARTESIAN_POINT ( 'NONE',  ( -6.055048479497754500E-017, -0.4944322300693974000, 0.2011123585144040700 ) ) ;
#62 = ADVANCED_FACE ( 'NONE', ( #231 ), #285, .T. ) ;
#63 = LINE ( 'NONE', #327, #24 ) ;
#64 = SPHERICAL_SURFACE ( 'NONE', #27, 0.6102362204724413000 ) ;
#65 = AXIS2_PLACEMENT_3D ( 'NONE', #283, #119, #310 ) ;
#66 = APPROVAL_STATUS ( 'not_yet_approved' ) ;
#67 = COORDINATED_UNIVERSAL_TIME_OFFSET ( 5, 0, .BEHIND. ) ;
#68 = ORIENTED_EDGE ( 'NONE', *, *, #206, .F. ) ;
#69 = COORDINATED_UNIVERSAL_TIME_OFFSET ( 5, 0, .BEHIND. ) ;
#70 = ADVANCED_BREP_SHAPE_REPRESENTATION ( '20173-E0W', ( #135, #59 ), #324 ) ;
#71 = CARTESIAN_POINT ( 'NONE',  ( 0.0000000000000000000, 0.5000000000000000000, 0.1955445885838016400 ) ) ;
#72 = EDGE_CURVE ( 'NONE', #212, #127, #181, .T. ) ;
#73 = DATE_TIME_ROLE ( 'creation_date' ) ;
#74 = ORIENTED_EDGE ( 'NONE', *, *, #302, .T. ) ;
#75 = CC_DESIGN_PERSON_AND_ORGANIZATION_ASSIGNMENT ( #1, #167, ( #301 ) ) ;
#76 = EDGE_LOOP ( 'NONE', ( #29, #223, #74 ) ) ;
#77 = COORDINATED_UNIVERSAL_TIME_OFFSET ( 5, 0, .BEHIND. ) ;
#78 = AXIS2_PLACEMENT_3D ( 'NONE', #254, #146, #222 ) ;
#79 = DIRECTION ( 'NONE',  ( 8.659560562354931600E-017, -0.7071067811865473500, -0.7071067811865476800 ) ) ;
#80 = VERTEX_POINT ( 'NONE', #250 ) ;
#81 = CIRCLE ( 'NONE', #292, 0.5000000000000000000 ) ;
#82 = CIRCLE ( 'NONE', #65, 2.696929133858267500 ) ;
#83 = DIRECTION ( 'NONE',  ( 0.0000000000000000000, 1.000000000000000000, 2.238352872228137200E-016 ) ) ;
#84 = CYLINDRICAL_SURFACE ( 'NONE', #78, 0.5000000000000000000 ) ;
#85 = SPHERICAL_SURFACE ( 'NONE', #219, 0.6102362204724413000 ) ;
#86 = EDGE_CURVE ( 'NONE', #80, #127, #63, .T. ) ;
#87 = EDGE_LOOP ( 'NONE', ( #307, #68, #305, #15 ) ) ;
#88 = ADVANCED_FACE ( 'NONE', ( #173 ), #64, .F. ) ;
#89 = VECTOR ( 'NONE', #79, 39.37007874015748100 ) ;
#90 = FACE_OUTER_BOUND ( 'NONE', #183, .T. ) ;
#91 = PRODUCT_DEFINITION ( 'UNKNOWN', '', #175, #149 ) ;
#92 = VERTEX_POINT ( 'NONE', #61 ) ;
#93 = CARTESIAN_POINT ( 'NONE',  ( 0.0000000000000000000, -0.4999999999999999400, -0.05145779612973962900 ) ) ;
#94 = DIRECTION ( 'NONE',  ( -0.0000000000000000000, -1.836909530733587800E-016, 1.000000000000000000 ) ) ;
#95 = ORIENTED_EDGE ( 'NONE', *, *, #206, .T. ) ;
#96 = FACE_OUTER_BOUND ( 'NONE', #57, .T. ) ;
#97 = CARTESIAN_POINT ( 'NONE',  ( 0.0000000000000000000, 2.190134741713875300E-017, 0.2011123585144041500 ) ) ;
#98 = DIRECTION ( 'NONE',  ( 0.0000000000000000000, -1.000000000000000000, -2.071958370271109000E-016 ) ) ;
#99 = CARTESIAN_POINT ( 'NONE',  ( 0.0000000000000000000, 6.829619984160658000E-017, 0.5587784243427019700 ) ) ;
#100 = AXIS2_PLACEMENT_3D ( 'NONE', #237, #322, #117 ) ;
#101 = SHAPE_DEFINITION_REPRESENTATION ( #7, #70 ) ;
#102 = EDGE_CURVE ( 'NONE', #104, #155, #157, .T. ) ;
#103 = DIRECTION ( 'NONE',  ( 0.0000000000000000000, -1.000000000000000000, -2.081042499479454300E-016 ) ) ;
#104 = VERTEX_POINT ( 'NONE', #106 ) ;
#105 = ADVANCED_FACE ( 'NONE', ( #177 ), #235, .T. ) ;
#106 = CARTESIAN_POINT ( 'NONE',  ( 0.0000000000000000000, -0.4999999999999999400, -0.1543098147821520800 ) ) ;
#107 = ORIENTED_EDGE ( 'NONE', *, *, #243, .F. ) ;
#108 = ADVANCED_FACE ( 'NONE', ( #195 ), #84, .T. ) ;
#109 = APPROVAL ( #293, 'UNSPECIFIED' ) ;
#110 = PERSON_AND_ORGANIZATION ( #204, #210 ) ;
#111 = CIRCLE ( 'NONE', #238, 0.5000000000000000000 ) ;
#112 = AXIS2_PLACEMENT_3D ( 'NONE', #194, #308, #291 ) ;
#113 = DIRECTION ( 'NONE',  ( -0.0000000000000000000, -1.836909530733566100E-016, 1.000000000000000000 ) ) ;
#114 = LOCAL_TIME ( 14, 8, 16.00000000000000000, #77 ) ;
#115 = DIRECTION ( 'NONE',  ( -0.0000000000000000000, -1.836909530733587800E-016, 1.000000000000000000 ) ) ;
#116 = DIRECTION ( 'NONE',  ( 0.0000000000000000000, -1.000000000000000000, -2.048885995248197400E-016 ) ) ;
#117 = DIRECTION ( 'NONE',  ( 0.0000000000000000000, 0.0000000000000000000, -1.000000000000000000 ) ) ;
#118 = CARTESIAN_POINT ( 'NONE',  ( 0.0000000000000000000, 2.292409638218432500E-017, 0.1955445885838015500 ) ) ;
#119 = DIRECTION ( 'NONE',  ( -1.000000000000000000, 0.0000000000000000000, -0.0000000000000000000 ) ) ;
#120 = EDGE_CURVE ( 'NONE', #304, #25, #82, .T. ) ;
#121 = DATE_TIME_ROLE ( 'classification_date' ) ;
#122 = ORIENTED_EDGE ( 'NONE', *, *, #154, .T. ) ;
#123 = COORDINATED_UNIVERSAL_TIME_OFFSET ( 5, 0, .BEHIND. ) ;
#124 = CC_DESIGN_APPROVAL ( #109, ( #91 ) ) ;
#125 = CONICAL_SURFACE ( 'NONE', #306, 0.5000000000000000000, 0.6921607229508485200 ) ;
#126 = APPROVAL_ROLE ( '' ) ;
#127 = VERTEX_POINT ( 'NONE', #186 ) ;
#128 = CARTESIAN_POINT ( 'NONE',  ( 0.0000000000000000000, 5.553749604663558200E-016, -0.1636298245050188100 ) ) ;
#129 = CALENDAR_DATE ( 2018, 1, 6 ) ;
#130 = APPROVAL_ROLE ( '' ) ;
#131 = AXIS2_PLACEMENT_3D ( 'NONE', #325, #39, #41 ) ;
#132 = DATE_AND_TIME ( #129, #2 ) ;
#133 = CARTESIAN_POINT ( 'NONE',  ( 0.0000000000000000000, -0.4999999999999999400, -0.1543098147821520300 ) ) ;
#134 = ORIENTED_EDGE ( 'NONE', *, *, #190, .F. ) ;
#135 = MANIFOLD_SOLID_BREP ( '20173-001-1-solid1', #279 ) ;
#136 = LENGTH_MEASURE_WITH_UNIT ( LENGTH_MEASURE( 0.02539999999999999900 ), #218 );
#137 = EDGE_CURVE ( 'NONE', #304, #180, #220, .T. ) ;
#138 = ADVANCED_FACE ( 'NONE', ( #44 ), #249, .T. ) ;
#139 = DIRECTION ( 'NONE',  ( -0.0000000000000000000, -1.836909530733566100E-016, 1.000000000000000000 ) ) ;
#140 = CIRCLE ( 'NONE', #277, 0.4944322300693974000 ) ;
#141 = CIRCLE ( 'NONE', #184, 0.4922739434107423800 ) ;
#142 = APPROVAL_PERSON_ORGANIZATION ( #110, #196, #130 ) ;
#143 = MECHANICAL_CONTEXT ( 'NONE', #298, 'mechanical' ) ;
#144 = CC_DESIGN_PERSON_AND_ORGANIZATION_ASSIGNMENT ( #185, #236, ( #91 ) ) ;
#145 = APPROVAL_STATUS ( 'not_yet_approved' ) ;
#146 = DIRECTION ( 'NONE',  ( -0.0000000000000000000, -1.836909530733566100E-016, 1.000000000000000000 ) ) ;
#147 = CONICAL_SURFACE ( 'NONE', #131, 0.5000000000000000000, 0.7853981633974482800 ) ;
#148 = DIRECTION ( 'NONE',  ( 0.0000000000000000000, 1.836909530733587800E-016, -1.000000000000000000 ) ) ;
#149 = DESIGN_CONTEXT ( 'detailed design', #328, 'design' ) ;
#150 = AXIS2_PLACEMENT_3D ( 'NONE', #246, #319, #46 ) ;
#151 = CYLINDRICAL_SURFACE ( 'NONE', #12, 0.5000000000000000000 ) ;
#152 = FACE_OUTER_BOUND ( 'NONE', #87, .T. ) ;
#153 = ORIENTED_EDGE ( 'NONE', *, *, #34, .F. ) ;
#154 = EDGE_CURVE ( 'NONE', #52, #212, #197, .T. ) ;
#155 = VERTEX_POINT ( 'NONE', #213 ) ;
#156 = APPROVAL_DATE_TIME ( #8, #109 ) ;
#157 = LINE ( 'NONE', #93, #200 ) ;
#158 = CC_DESIGN_DATE_AND_TIME_ASSIGNMENT ( #132, #73, ( #91 ) ) ;
#159 = ORIENTED_EDGE ( 'NONE', *, *, #55, .F. ) ;
#160 = PERSON_AND_ORGANIZATION ( #204, #210 ) ;
#161 = ADVANCED_FACE ( 'NONE', ( #96 ), #147, .T. ) ;
#162 = CARTESIAN_POINT ( 'NONE',  ( 6.028617091016121300E-017, 0.4922739434107438700, -0.1636298245050187600 ) ) ;
#163 = AXIS2_PLACEMENT_3D ( 'NONE', #97, #266, #300 ) ;
#164 = COORDINATED_UNIVERSAL_TIME_OFFSET ( 5, 0, .BEHIND. ) ;
#165 = ORIENTED_EDGE ( 'NONE', *, *, #34, .T. ) ;
#166 = ORIENTED_EDGE ( 'NONE', *, *, #258, .F. ) ;
#167 = PERSON_AND_ORGANIZATION_ROLE ( 'design_owner' ) ;
#168 = DIRECTION ( 'NONE',  ( 0.0000000000000000000, 1.000000000000000000, 2.048885995248197400E-016 ) ) ;
#169 = APPROVAL_PERSON_ORGANIZATION ( #289, #316, #244 ) ;
#170 = UNCERTAINTY_MEASURE_WITH_UNIT (LENGTH_MEASURE( 1.000000000000000100E-005 ), #229, 'distance_accuracy_value', 'NONE');
#171 = EDGE_CURVE ( 'NONE', #52, #92, #9, .T. ) ;
#172 = DIRECTION ( 'NONE',  ( 0.0000000000000000000, -1.000000000000000000, -2.025895274271475000E-016 ) ) ;
#173 = FACE_OUTER_BOUND ( 'NONE', #53, .T. ) ;
#174 = ORIENTED_EDGE ( 'NONE', *, *, #318, .T. ) ;
#175 = PRODUCT_DEFINITION_FORMATION_WITH_SPECIFIED_SOURCE ( 'ANY', '', #301, .NOT_KNOWN. ) ;
#176 = CARTESIAN_POINT ( 'NONE',  ( 0.0000000000000000000, -0.4922739434107427600, -0.1636298245050188700 ) ) ;
#177 = FACE_OUTER_BOUND ( 'NONE', #48, .T. ) ;
#178 = PERSON_AND_ORGANIZATION_ROLE ( 'design_supplier' ) ;
#179 = CARTESIAN_POINT ( 'NONE',  ( 0.0000000000000000000, 6.829619984160658000E-017, -0.05145779612973953900 ) ) ;
#180 = VERTEX_POINT ( 'NONE', #162 ) ;
#181 = LINE ( 'NONE', #71, #20 ) ;
#182 = ORIENTED_EDGE ( 'NONE', *, *, #190, .T. ) ;
#183 = EDGE_LOOP ( 'NONE', ( #312, #174, #166, #159 ) ) ;
#184 = AXIS2_PLACEMENT_3D ( 'NONE', #128, #148, #23 ) ;
#185 = PERSON_AND_ORGANIZATION ( #204, #210 ) ;
#186 = CARTESIAN_POINT ( 'NONE',  ( 6.123233995736766000E-017, 0.5000000000000000000, 0.1955445885838016400 ) ) ;
#187 = ORIENTED_EDGE ( 'NONE', *, *, #137, .F. ) ;
#188 = DIRECTION ( 'NONE',  ( 0.0000000000000000000, -1.000000000000000000, -2.048885995248197400E-016 ) ) ;
#189 = DIRECTION ( 'NONE',  ( -0.0000000000000000000, -1.836909530733566100E-016, 1.000000000000000000 ) ) ;
#190 = EDGE_CURVE ( 'NONE', #212, #92, #303, .T. ) ;
#191 = CARTESIAN_POINT ( 'NONE',  ( 0.0000000000000000000, 0.4944322300693975200, 0.2011123585144042300 ) ) ;
#192 = PERSON_AND_ORGANIZATION ( #204, #210 ) ;
#193 = CARTESIAN_POINT ( 'NONE',  ( 0.0000000000000000000, 8.718918517338687300E-017, -0.1543098147821519400 ) ) ;
#194 = CARTESIAN_POINT ( 'NONE',  ( 0.0000000000000000000, 6.829619984160658000E-017, 2.487991022767897900 ) ) ;
#195 = FACE_OUTER_BOUND ( 'NONE', #255, .T. ) ;
#196 = APPROVAL ( #145, 'UNSPECIFIED' ) ;
#197 = CIRCLE ( 'NONE', #100, 0.6102362204724413000 ) ;
#198 = CARTESIAN_POINT ( 'NONE',  ( 0.0000000000000000000, 3.985584012459953500E-016, -0.2089381110903695800 ) ) ;
#199 = DIRECTION ( 'NONE',  ( -0.0000000000000000000, -1.836909530733587800E-016, 1.000000000000000000 ) ) ;
#200 = VECTOR ( 'NONE', #189, 39.37007874015748100 ) ;
#201 = ORIENTED_EDGE ( 'NONE', *, *, #72, .T. ) ;
#202 = AXIS2_PLACEMENT_3D ( 'NONE', #228, #50, #326 ) ;
#203 = DIRECTION ( 'NONE',  ( 1.000000000000000000, 0.0000000000000000000, 0.0000000000000000000 ) ) ;
#204 = PERSON ( 'UNSPECIFIED', 'UNSPECIFIED', 'UNSPECIFIED', ('UNSPECIFIED'), ('UNSPECIFIED'), ('UNSPECIFIED') ) ;
#205 = CARTESIAN_POINT ( 'NONE',  ( 0.0000000000000000000, 8.718918517338687300E-017, -0.1543098147821519700 ) ) ;
#206 = EDGE_CURVE ( 'NONE', #25, #180, #141, .T. ) ;
#207 = EDGE_LOOP ( 'NONE', ( #267, #14, #288 ) ) ;
#208 = DIRECTION ( 'NONE',  ( 0.0000000000000000000, 0.7071067811865475700, -0.7071067811865474600 ) ) ;
#209 = ORIENTED_EDGE ( 'NONE', *, *, #86, .T. ) ;
#210 = ORGANIZATION ( 'UNSPECIFIED', 'UNSPECIFIED', '' ) ;
#211 = CC_DESIGN_APPROVAL ( #196, ( #175 ) ) ;
#212 = VERTEX_POINT ( 'NONE', #191 ) ;
#213 = CARTESIAN_POINT ( 'NONE',  ( 0.0000000000000000000, -0.5000000000000000000, 0.1955445885838014400 ) ) ;
#214 = CARTESIAN_POINT ( 'NONE',  ( 6.123233995736766000E-017, -0.5000000000000000000, 0.1955445885838014400 ) ) ;
#215 = ADVANCED_FACE ( 'NONE', ( #253 ), #85, .F. ) ;
#216 = PERSON_AND_ORGANIZATION_ROLE ( 'creator' ) ;
#217 = APPROVAL_DATE_TIME ( #28, #196 ) ;
#218 =( LENGTH_UNIT ( ) NAMED_UNIT ( * ) SI_UNIT ( $, .METRE. ) );
#219 = AXIS2_PLACEMENT_3D ( 'NONE', #294, #17, #225 ) ;
#220 = CIRCLE ( 'NONE', #47, 2.696929133858267500 ) ;
#221 = ORIENTED_EDGE ( 'NONE', *, *, #86, .F. ) ;
#222 = DIRECTION ( 'NONE',  ( 0.0000000000000000000, -1.000000000000000000, -1.878145495644180800E-016 ) ) ;
#223 = ORIENTED_EDGE ( 'NONE', *, *, #137, .T. ) ;
#224 = ORIENTED_EDGE ( 'NONE', *, *, #102, .F. ) ;
#225 = DIRECTION ( 'NONE',  ( 0.0000000000000000000, 1.000000000000000000, 2.238352872228137200E-016 ) ) ;
#226 = DIMENSIONAL_EXPONENTS ( 1.000000000000000000, 0.0000000000000000000, 0.0000000000000000000, 0.0000000000000000000, 0.0000000000000000000, 0.0000000000000000000, 0.0000000000000000000 ) ;
#227 = APPROVAL_PERSON_ORGANIZATION ( #262, #109, #126 ) ;
#228 = CARTESIAN_POINT ( 'NONE',  ( 0.0000000000000000000, 8.718918517338687300E-017, -0.1543098147821519700 ) ) ;
#229 =( CONVERSION_BASED_UNIT ( 'INCH', #136 ) LENGTH_UNIT ( ) NAMED_UNIT ( #226 ) );
#230 = EDGE_CURVE ( 'NONE', #80, #104, #36, .T. ) ;
#231 = FACE_OUTER_BOUND ( 'NONE', #30, .T. ) ;
#232 = CIRCLE ( 'NONE', #251, 0.5000000000000000000 ) ;
#233 = CC_DESIGN_PERSON_AND_ORGANIZATION_ASSIGNMENT ( #192, #216, ( #175 ) ) ;
#234 = CARTESIAN_POINT ( 'NONE',  ( 0.0000000000000000000, 2.292409638218432500E-017, 0.1955445885838015500 ) ) ;
#235 = CONICAL_SURFACE ( 'NONE', #330, 0.5000000000000000000, 0.7853981633974482800 ) ;
#236 = PERSON_AND_ORGANIZATION_ROLE ( 'creator' ) ;
#237 = CARTESIAN_POINT ( 'NONE',  ( 0.0000000000000000000, 6.829619984160658000E-017, 0.5587784243427019700 ) ) ;
#238 = AXIS2_PLACEMENT_3D ( 'NONE', #118, #270, #116 ) ;
#239 = DIRECTION ( 'NONE',  ( -0.0000000000000000000, -1.836909530733566100E-016, 1.000000000000000000 ) ) ;
#240 = ORIENTED_EDGE ( 'NONE', *, *, #120, .T. ) ;
#241 = PERSON_AND_ORGANIZATION_ROLE ( 'classification_officer' ) ;
#242 = ORIENTED_EDGE ( 'NONE', *, *, #5, .F. ) ;
#243 = EDGE_CURVE ( 'NONE', #127, #155, #111, .T. ) ;
#244 = APPROVAL_ROLE ( '' ) ;
#245 =( NAMED_UNIT ( * ) SI_UNIT ( $, .STERADIAN. ) SOLID_ANGLE_UNIT ( ) );
#246 = CARTESIAN_POINT ( 'NONE',  ( 0.0000000000000000000, 6.829619984160658000E-017, 0.5587784243427019700 ) ) ;
#247 = DIRECTION ( 'NONE',  ( 0.0000000000000000000, -0.6382021439830981600, 0.7698688352020602900 ) ) ;
#248 = CC_DESIGN_PERSON_AND_ORGANIZATION_ASSIGNMENT ( #256, #178, ( #175 ) ) ;
#249 = SPHERICAL_SURFACE ( 'NONE', #112, 2.696929133858267500 ) ;
#250 = CARTESIAN_POINT ( 'NONE',  ( 6.123233995736767300E-017, 0.5000000000000001100, -0.1543098147821518600 ) ) ;
#251 = AXIS2_PLACEMENT_3D ( 'NONE', #205, #199, #268 ) ;
#252 = DATE_AND_TIME ( #60, #114 ) ;
#253 = FACE_OUTER_BOUND ( 'NONE', #207, .T. ) ;
#254 = CARTESIAN_POINT ( 'NONE',  ( 0.0000000000000000000, 6.829619984160658000E-017, -0.05145779612973953900 ) ) ;
#255 = EDGE_LOOP ( 'NONE', ( #221, #18, #272, #107 ) ) ;
#256 = PERSON_AND_ORGANIZATION ( #204, #210 ) ;
#257 = CONICAL_SURFACE ( 'NONE', #269, 0.5000000000000000000, 0.6921607229508485200 ) ;
#258 = EDGE_CURVE ( 'NONE', #104, #80, #232, .T. ) ;
#259 = CALENDAR_DATE ( 2018, 1, 6 ) ;
#260 = DIRECTION ( 'NONE',  ( 0.0000000000000000000, -1.000000000000000000, -1.878145495644180800E-016 ) ) ;
#261 = ADVANCED_FACE ( 'NONE', ( #152 ), #257, .T. ) ;
#262 = PERSON_AND_ORGANIZATION ( #204, #210 ) ;
#263 = SECURITY_CLASSIFICATION ( '', '', #43 ) ;
#264 = EDGE_LOOP ( 'NONE', ( #38, #209, #153, #224 ) ) ;
#265 = APPLICATION_PROTOCOL_DEFINITION ( 'international standard', 'config_control_design', 1994, #328 ) ;
#266 = DIRECTION ( 'NONE',  ( -0.0000000000000000000, -1.836909530733566100E-016, 1.000000000000000000 ) ) ;
#267 = ORIENTED_EDGE ( 'NONE', *, *, #154, .F. ) ;
#268 = DIRECTION ( 'NONE',  ( 0.0000000000000000000, -1.000000000000000000, -2.048885995248197400E-016 ) ) ;
#269 = AXIS2_PLACEMENT_3D ( 'NONE', #320, #94, #188 ) ;
#270 = DIRECTION ( 'NONE',  ( -0.0000000000000000000, -1.836909530733566100E-016, 1.000000000000000000 ) ) ;
#271 = CIRCLE ( 'NONE', #286, 0.4922739434107423800 ) ;
#272 = ORIENTED_EDGE ( 'NONE', *, *, #102, .T. ) ;
#273 = CARTESIAN_POINT ( 'NONE',  ( 0.0000000000000000000, 2.190134741713875300E-017, 0.2011123585144041500 ) ) ;
#274 = LOCAL_TIME ( 14, 8, 16.00000000000000000, #123 ) ;
#275 = DIRECTION ( 'NONE',  ( 1.000000000000000000, 0.0000000000000000000, 0.0000000000000000000 ) ) ;
#276 = LOCAL_TIME ( 14, 8, 16.00000000000000000, #69 ) ;
#277 = AXIS2_PLACEMENT_3D ( 'NONE', #273, #113, #98 ) ;
#278 = DIRECTION ( 'NONE',  ( 1.224646799147353200E-016, 1.000000000000000000, 0.0000000000000000000 ) ) ;
#279 = CLOSED_SHELL ( 'NONE', ( #321, #105, #37, #138, #215, #88, #62, #108, #161, #261 ) ) ;
#280 = ORIENTED_EDGE ( 'NONE', *, *, #72, .F. ) ;
#281 = CC_DESIGN_PERSON_AND_ORGANIZATION_ASSIGNMENT ( #160, #241, ( #263 ) ) ;
#282 = CALENDAR_DATE ( 2018, 1, 6 ) ;
#283 = CARTESIAN_POINT ( 'NONE',  ( 0.0000000000000000000, 6.829619984160658000E-017, 2.487991022767897900 ) ) ;
#284 = LINE ( 'NONE', #133, #21 ) ;
#285 = SPHERICAL_SURFACE ( 'NONE', #309, 2.696929133858267500 ) ;
#286 = AXIS2_PLACEMENT_3D ( 'NONE', #297, #329, #103 ) ;
#287 = FACE_OUTER_BOUND ( 'NONE', #264, .T. ) ;
#288 = ORIENTED_EDGE ( 'NONE', *, *, #5, .T. ) ;
#289 = PERSON_AND_ORGANIZATION ( #204, #210 ) ;
#290 = CARTESIAN_POINT ( 'NONE',  ( 6.123233995736766000E-017, 0.5000000000000001100, -0.1543098147821518300 ) ) ;
#291 = DIRECTION ( 'NONE',  ( 0.0000000000000000000, -1.000000000000000000, -2.025895274271475000E-016 ) ) ;
#292 = AXIS2_PLACEMENT_3D ( 'NONE', #11, #6, #313 ) ;
#293 = APPROVAL_STATUS ( 'not_yet_approved' ) ;
#294 = CARTESIAN_POINT ( 'NONE',  ( 0.0000000000000000000, 6.829619984160658000E-017, 0.5587784243427019700 ) ) ;
#295 = LINE ( 'NONE', #214, #89 ) ;
#296 = LINE ( 'NONE', #290, #311 ) ;
#297 = CARTESIAN_POINT ( 'NONE',  ( 0.0000000000000000000, 5.553749604663558200E-016, -0.1636298245050188100 ) ) ;
#298 = APPLICATION_CONTEXT ( 'configuration controlled 3d designs of mechanical parts and assemblies' ) ;
#299 = CC_DESIGN_DATE_AND_TIME_ASSIGNMENT ( #49, #121, ( #263 ) ) ;
#300 = DIRECTION ( 'NONE',  ( 0.0000000000000000000, -1.000000000000000000, -2.071958370271109000E-016 ) ) ;
#301 = PRODUCT ( '20173-E0W', '20173-E0W', '', ( #143 ) ) ;
#302 = EDGE_CURVE ( 'NONE', #180, #25, #271, .T. ) ;
#303 = CIRCLE ( 'NONE', #163, 0.4944322300693974000 ) ;
#304 = VERTEX_POINT ( 'NONE', #198 ) ;
#305 = ORIENTED_EDGE ( 'NONE', *, *, #55, .T. ) ;
#306 = AXIS2_PLACEMENT_3D ( 'NONE', #193, #115, #10 ) ;
#307 = ORIENTED_EDGE ( 'NONE', *, *, #318, .F. ) ;
#308 = DIRECTION ( 'NONE',  ( 1.000000000000000000, 0.0000000000000000000, 0.0000000000000000000 ) ) ;
#309 = AXIS2_PLACEMENT_3D ( 'NONE', #31, #203, #172 ) ;
#310 = DIRECTION ( 'NONE',  ( 0.0000000000000000000, 0.0000000000000000000, 1.000000000000000000 ) ) ;
#311 = VECTOR ( 'NONE', #4, 39.37007874015748100 ) ;
#312 = ORIENTED_EDGE ( 'NONE', *, *, #302, .F. ) ;
#313 = DIRECTION ( 'NONE',  ( 0.0000000000000000000, -1.000000000000000000, -2.048885995248197400E-016 ) ) ;
#314 = DIRECTION ( 'NONE',  ( -1.000000000000000000, 0.0000000000000000000, 0.0000000000000000000 ) ) ;
#315 = ORIENTED_EDGE ( 'NONE', *, *, #19, .T. ) ;
#316 = APPROVAL ( #66, 'UNSPECIFIED' ) ;
#317 = CALENDAR_DATE ( 2018, 1, 6 ) ;
#318 = EDGE_CURVE ( 'NONE', #180, #80, #296, .T. ) ;
#319 = DIRECTION ( 'NONE',  ( -1.000000000000000000, 1.224646799147353200E-016, 2.249565377136128300E-032 ) ) ;
#320 = CARTESIAN_POINT ( 'NONE',  ( 0.0000000000000000000, 8.718918517338687300E-017, -0.1543098147821519400 ) ) ;
#321 = ADVANCED_FACE ( 'NONE', ( #90 ), #125, .T. ) ;
#322 = DIRECTION ( 'NONE',  ( 1.000000000000000000, 0.0000000000000000000, 0.0000000000000000000 ) ) ;
#323 = DIRECTION ( 'NONE',  ( 0.0000000000000000000, 0.0000000000000000000, 1.000000000000000000 ) ) ;
#324 =( GEOMETRIC_REPRESENTATION_CONTEXT ( 3 ) GLOBAL_UNCERTAINTY_ASSIGNED_CONTEXT ( ( #170 ) ) GLOBAL_UNIT_ASSIGNED_CONTEXT ( ( #229, #26, #245 ) ) REPRESENTATION_CONTEXT ( 'NONE', 'WORKASPACE' ) );
#325 = CARTESIAN_POINT ( 'NONE',  ( 0.0000000000000000000, 2.292409638218432500E-017, 0.1955445885838015500 ) ) ;
#326 = DIRECTION ( 'NONE',  ( 0.0000000000000000000, -1.000000000000000000, -2.048885995248197400E-016 ) ) ;
#327 = CARTESIAN_POINT ( 'NONE',  ( 6.123233995736766000E-017, 0.5000000000000001100, -0.05145779612973944200 ) ) ;
#328 = APPLICATION_CONTEXT ( 'configuration controlled 3d designs of mechanical parts and assemblies' ) ;
#329 = DIRECTION ( 'NONE',  ( 0.0000000000000000000, 1.836909530733587800E-016, -1.000000000000000000 ) ) ;
#330 = AXIS2_PLACEMENT_3D ( 'NONE', #234, #54, #168 ) ;
ENDSEC;
END-ISO-10303-21;
