ISO-10303-21;
HEADER;
FILE_DESCRIPTION (( 'STEP AP203' ),
    '1' );
FILE_NAME ('Web Model 13402_13403.step',
    '2021-06-30T20:44:14',
    ( '' ),
    ( '' ),
    'SwSTEP 2.0',
    'SolidWorks 2018',
    '' );
FILE_SCHEMA (( 'CONFIG_CONTROL_DESIGN' ));
ENDSEC;

DATA;
#1 = PRODUCT_DEFINITION_FORMATION_WITH_SPECIFIED_SOURCE ( 'ANY', '', #74, .NOT_KNOWN. ) ;
#2 = PERSON_AND_ORGANIZATION_ROLE ( 'design_owner' ) ;
#3 = DATE_AND_TIME ( #100, #150 ) ;
#4 = LINE ( 'NONE', #15, #46 ) ;
#5 = VECTOR ( 'NONE', #178, 1000.000000000000000 ) ;
#6 = LOCAL_TIME ( 16, 44, 14.00000000000000000, #195 ) ;
#7 = ADVANCED_FACE ( 'NONE', ( #132 ), #119, .F. ) ;
#8 = APPROVAL_PERSON_ORGANIZATION ( #59, #118, #130 ) ;
#9 = DIRECTION ( 'NONE',  ( -0.000000000000000000, 0.000000000000000000, 1.000000000000000000 ) ) ;
#10 = CC_DESIGN_APPROVAL ( #190, ( #1 ) ) ;
#11 = CARTESIAN_POINT ( 'NONE',  ( 0.000000000000000000, 0.000000000000000000, 0.000000000000000000 ) ) ;
#12 = CARTESIAN_POINT ( 'NONE',  ( -12.49999999999999645, -12.50000000000000000, 3.000000000000000000 ) ) ;
#13 = CARTESIAN_POINT ( 'NONE',  ( 12.50000000000000000, 12.50000000000000000, 3.000000000000000000 ) ) ;
#14 = EDGE_CURVE ( 'NONE', #225, #140, #64, .T. ) ;
#15 = CARTESIAN_POINT ( 'NONE',  ( -12.50000000000000000, 12.50000000000000000, 0.000000000000000000 ) ) ;
#16 = CLOSED_SHELL ( 'NONE', ( #211, #173, #154, #24, #63, #7 ) ) ;
#17 = CARTESIAN_POINT ( 'NONE',  ( 0.000000000000000000, 0.000000000000000000, 3.000000000000000000 ) ) ;
#18 = FACE_OUTER_BOUND ( 'NONE', #124, .T. ) ;
#19 = MECHANICAL_CONTEXT ( 'NONE', #160, 'mechanical' ) ;
#20 = EDGE_CURVE ( 'NONE', #76, #188, #172, .T. ) ;
#21 = PERSON_AND_ORGANIZATION_ROLE ( 'creator' ) ;
#22 = FACE_OUTER_BOUND ( 'NONE', #39, .T. ) ;
#23 = EDGE_CURVE ( 'NONE', #89, #225, #236, .T. ) ;
#24 = ADVANCED_FACE ( 'NONE', ( #18 ), #117, .F. ) ;
#25 = AXIS2_PLACEMENT_3D ( 'NONE', #52, #50, #186 ) ;
#26 = ORIENTED_EDGE ( 'NONE', *, *, #114, .F. ) ;
#27 = VECTOR ( 'NONE', #93, 1000.000000000000000 ) ;
#28 = CARTESIAN_POINT ( 'NONE',  ( -12.49999999999999645, -12.50000000000000000, 3.000000000000000000 ) ) ;
#29 = COORDINATED_UNIVERSAL_TIME_OFFSET ( 5, 0, .BEHIND. ) ;
#30 = EDGE_CURVE ( 'NONE', #72, #177, #146, .T. ) ;
#31 = DATE_AND_TIME ( #84, #97 ) ;
#32 = LINE ( 'NONE', #65, #202 ) ;
#33 = DIRECTION ( 'NONE',  ( 1.000000000000000000, 0.000000000000000000, 0.000000000000000000 ) ) ;
#34 = PLANE ( 'NONE',  #147 ) ;
#35 = EDGE_CURVE ( 'NONE', #225, #72, #32, .T. ) ;
#36 = ORIENTED_EDGE ( 'NONE', *, *, #237, .F. ) ;
#37 = APPROVAL_ROLE ( '' ) ;
#38 = ORIENTED_EDGE ( 'NONE', *, *, #114, .T. ) ;
#39 = EDGE_LOOP ( 'NONE', ( #222, #69, #55, #161 ) ) ;
#40 = PERSON_AND_ORGANIZATION ( #227, #210 ) ;
#41 = ORIENTED_EDGE ( 'NONE', *, *, #136, .T. ) ;
#42 = APPROVAL ( #166, 'UNSPECIFIED' ) ;
#43 = VERTEX_POINT ( 'NONE', #199 ) ;
#44 = CC_DESIGN_DATE_AND_TIME_ASSIGNMENT ( #94, #221, ( #159 ) ) ;
#45 = PERSON_AND_ORGANIZATION ( #227, #210 ) ;
#46 = VECTOR ( 'NONE', #67, 1000.000000000000000 ) ;
#47 = DIRECTION ( 'NONE',  ( -1.000000000000000000, -0.000000000000000000, -0.000000000000000000 ) ) ;
#48 = AXIS2_PLACEMENT_3D ( 'NONE', #11, #9, #157 ) ;
#49 = CARTESIAN_POINT ( 'NONE',  ( 12.50000000000000000, 12.50000000000000000, 0.000000000000000000 ) ) ;
#50 = DIRECTION ( 'NONE',  ( 0.000000000000000000, -1.000000000000000000, 0.000000000000000000 ) ) ;
#51 = ORIENTED_EDGE ( 'NONE', *, *, #116, .F. ) ;
#52 = CARTESIAN_POINT ( 'NONE',  ( -12.50000000000000000, 12.50000000000000000, 3.000000000000000000 ) ) ;
#53 = DIRECTION ( 'NONE',  ( -0.000000000000000000, 0.000000000000000000, 1.000000000000000000 ) ) ;
#54 = DIRECTION ( 'NONE',  ( 1.387778780781445676E-16, -1.000000000000000000, 0.000000000000000000 ) ) ;
#55 = ORIENTED_EDGE ( 'NONE', *, *, #23, .F. ) ;
#56 = PLANE ( 'NONE',  #25 ) ;
#57 = APPROVAL_DATE_TIME ( #3, #42 ) ;
#58 = FACE_OUTER_BOUND ( 'NONE', #113, .T. ) ;
#59 = PERSON_AND_ORGANIZATION ( #227, #210 ) ;
#60 = CC_DESIGN_PERSON_AND_ORGANIZATION_ASSIGNMENT ( #137, #125, ( #1 ) ) ;
#61 = ADVANCED_BREP_SHAPE_REPRESENTATION ( 'Web Model 13402_13403', ( #115, #193 ), #180 ) ;
#62 = ORIENTED_EDGE ( 'NONE', *, *, #30, .T. ) ;
#63 = ADVANCED_FACE ( 'NONE', ( #191 ), #104, .T. ) ;
#64 = LINE ( 'NONE', #139, #194 ) ;
#65 = CARTESIAN_POINT ( 'NONE',  ( -12.50000000000000000, 12.50000000000000000, 3.000000000000000000 ) ) ;
#66 = CARTESIAN_POINT ( 'NONE',  ( -12.49999999999999645, -12.50000000000000000, 3.000000000000000000 ) ) ;
#67 = DIRECTION ( 'NONE',  ( -1.000000000000000000, -0.000000000000000000, -0.000000000000000000 ) ) ;
#68 = PLANE ( 'NONE',  #133 ) ;
#69 = ORIENTED_EDGE ( 'NONE', *, *, #14, .F. ) ;
#70 = CC_DESIGN_SECURITY_CLASSIFICATION ( #159, ( #1 ) ) ;
#71 = DIRECTION ( 'NONE',  ( -0.000000000000000000, -0.000000000000000000, -1.000000000000000000 ) ) ;
#72 = VERTEX_POINT ( 'NONE', #12 ) ;
#73 = CARTESIAN_POINT ( 'NONE',  ( 12.50000000000000355, -12.50000000000000000, 0.000000000000000000 ) ) ;
#74 = PRODUCT ( 'Web Model 13402_13403', 'Web Model 13402_13403', '', ( #19 ) ) ;
#75 = EDGE_CURVE ( 'NONE', #140, #177, #99, .T. ) ;
#76 = VERTEX_POINT ( 'NONE', #73 ) ;
#77 = PERSON_AND_ORGANIZATION_ROLE ( 'design_supplier' ) ;
#78 = ORIENTED_EDGE ( 'NONE', *, *, #111, .F. ) ;
#79 = APPROVAL_PERSON_ORGANIZATION ( #127, #190, #218 ) ;
#80 = DESIGN_CONTEXT ( 'detailed design', #205, 'design' ) ;
#81 = VECTOR ( 'NONE', #203, 1000.000000000000000 ) ;
#82 = AXIS2_PLACEMENT_3D ( 'NONE', #17, #53, #185 ) ;
#83 = ORIENTED_EDGE ( 'NONE', *, *, #23, .T. ) ;
#84 = CALENDAR_DATE ( 2021, 30, 6 ) ;
#85 = CARTESIAN_POINT ( 'NONE',  ( -12.50000000000000000, 12.50000000000000000, 3.000000000000000000 ) ) ;
#86 = VECTOR ( 'NONE', #47, 1000.000000000000000 ) ;
#87 = DIRECTION ( 'NONE',  ( 0.000000000000000000, 1.000000000000000000, 0.000000000000000000 ) ) ;
#88 = CC_DESIGN_PERSON_AND_ORGANIZATION_ASSIGNMENT ( #206, #77, ( #1 ) ) ;
#89 = VERTEX_POINT ( 'NONE', #92 ) ;
#90 = VECTOR ( 'NONE', #174, 1000.000000000000000 ) ;
#91 = APPLICATION_PROTOCOL_DEFINITION ( 'international standard', 'config_control_design', 1994, #160 ) ;
#92 = CARTESIAN_POINT ( 'NONE',  ( 12.50000000000000000, 12.50000000000000000, 3.000000000000000000 ) ) ;
#93 = DIRECTION ( 'NONE',  ( 1.000000000000000000, 0.000000000000000000, 0.000000000000000000 ) ) ;
#94 = DATE_AND_TIME ( #235, #6 ) ;
#95 = CARTESIAN_POINT ( 'NONE',  ( -12.50000000000000000, 12.50000000000000000, 0.000000000000000000 ) ) ;
#96 = EDGE_LOOP ( 'NONE', ( #171, #26, #187, #134 ) ) ;
#97 = LOCAL_TIME ( 16, 44, 14.00000000000000000, #151 ) ;
#98 = SECURITY_CLASSIFICATION_LEVEL ( 'unclassified' ) ;
#99 = LINE ( 'NONE', #164, #228 ) ;
#100 = CALENDAR_DATE ( 2021, 30, 6 ) ;
#101 = FACE_OUTER_BOUND ( 'NONE', #106, .T. ) ;
#102 = CARTESIAN_POINT ( 'NONE',  ( -12.49999999999999645, -12.50000000000000000, 3.000000000000000000 ) ) ;
#103 = UNCERTAINTY_MEASURE_WITH_UNIT (LENGTH_MEASURE( 1.000000000000000082E-05 ), #233, 'distance_accuracy_value', 'NONE');
#104 = PLANE ( 'NONE',  #82 ) ;
#105 = APPROVAL_PERSON_ORGANIZATION ( #40, #42, #37 ) ;
#106 = EDGE_LOOP ( 'NONE', ( #209, #181, #232, #149 ) ) ;
#107 = CARTESIAN_POINT ( 'NONE',  ( 12.50000000000000000, 12.50000000000000000, 3.000000000000000000 ) ) ;
#108 = LOCAL_TIME ( 16, 44, 14.00000000000000000, #29 ) ;
#109 = DIRECTION ( 'NONE',  ( -0.000000000000000000, -0.000000000000000000, -1.000000000000000000 ) ) ;
#110 = CARTESIAN_POINT ( 'NONE',  ( -12.49999999999999645, -12.50000000000000000, 0.000000000000000000 ) ) ;
#111 = EDGE_CURVE ( 'NONE', #89, #188, #128, .T. ) ;
#112 = APPROVAL_STATUS ( 'not_yet_approved' ) ;
#113 = EDGE_LOOP ( 'NONE', ( #153, #78, #36, #41 ) ) ;
#114 = EDGE_CURVE ( 'NONE', #177, #76, #230, .T. ) ;
#115 = MANIFOLD_SOLID_BREP ( 'Boss-Extrude1', #16 ) ;
#116 = EDGE_CURVE ( 'NONE', #72, #43, #224, .T. ) ;
#117 = PLANE ( 'NONE',  #129 ) ;
#118 = APPROVAL ( #112, 'UNSPECIFIED' ) ;
#119 = PLANE ( 'NONE',  #48 ) ;
#120 = DIRECTION ( 'NONE',  ( -1.000000000000000000, -1.387778780781445429E-16, 0.000000000000000000 ) ) ;
#121 = CC_DESIGN_APPROVAL ( #42, ( #159 ) ) ;
#122 =( NAMED_UNIT ( * ) PLANE_ANGLE_UNIT ( ) SI_UNIT ( $, .RADIAN. ) );
#123 = EDGE_LOOP ( 'NONE', ( #196, #83, #169, #192 ) ) ;
#124 = EDGE_LOOP ( 'NONE', ( #38, #163, #51, #62 ) ) ;
#125 = PERSON_AND_ORGANIZATION_ROLE ( 'creator' ) ;
#126 = DATE_AND_TIME ( #201, #108 ) ;
#127 = PERSON_AND_ORGANIZATION ( #227, #210 ) ;
#128 = LINE ( 'NONE', #13, #138 ) ;
#129 = AXIS2_PLACEMENT_3D ( 'NONE', #28, #87, #155 ) ;
#130 = APPROVAL_ROLE ( '' ) ;
#131 = LOCAL_TIME ( 16, 44, 14.00000000000000000, #223 ) ;
#132 = FACE_OUTER_BOUND ( 'NONE', #96, .T. ) ;
#133 = AXIS2_PLACEMENT_3D ( 'NONE', #144, #145, #184 ) ;
#134 = ORIENTED_EDGE ( 'NONE', *, *, #219, .F. ) ;
#135 = SHAPE_DEFINITION_REPRESENTATION ( #213, #61 ) ;
#136 = EDGE_CURVE ( 'NONE', #43, #76, #197, .T. ) ;
#137 = PERSON_AND_ORGANIZATION ( #227, #210 ) ;
#138 = VECTOR ( 'NONE', #109, 1000.000000000000000 ) ;
#139 = CARTESIAN_POINT ( 'NONE',  ( -12.50000000000000000, 12.50000000000000000, 3.000000000000000000 ) ) ;
#140 = VERTEX_POINT ( 'NONE', #95 ) ;
#141 = LINE ( 'NONE', #107, #183 ) ;
#142 =( NAMED_UNIT ( * ) SI_UNIT ( $, .STERADIAN. ) SOLID_ANGLE_UNIT ( ) );
#143 = DIRECTION ( 'NONE',  ( 0.000000000000000000, 0.000000000000000000, 1.000000000000000000 ) ) ;
#144 = CARTESIAN_POINT ( 'NONE',  ( -12.50000000000000000, 12.50000000000000000, 3.000000000000000000 ) ) ;
#145 = DIRECTION ( 'NONE',  ( 1.000000000000000000, 1.387778780781445429E-16, -0.000000000000000000 ) ) ;
#146 = LINE ( 'NONE', #66, #90 ) ;
#147 = AXIS2_PLACEMENT_3D ( 'NONE', #216, #120, #179 ) ;
#148 = APPLICATION_PROTOCOL_DEFINITION ( 'international standard', 'config_control_design', 1994, #205 ) ;
#149 = ORIENTED_EDGE ( 'NONE', *, *, #14, .T. ) ;
#150 = LOCAL_TIME ( 16, 44, 14.00000000000000000, #200 ) ;
#151 = COORDINATED_UNIVERSAL_TIME_OFFSET ( 5, 0, .BEHIND. ) ;
#152 = CC_DESIGN_PERSON_AND_ORGANIZATION_ASSIGNMENT ( #207, #2, ( #74 ) ) ;
#153 = ORIENTED_EDGE ( 'NONE', *, *, #20, .T. ) ;
#154 = ADVANCED_FACE ( 'NONE', ( #101 ), #68, .F. ) ;
#155 = DIRECTION ( 'NONE',  ( 0.000000000000000000, -0.000000000000000000, 1.000000000000000000 ) ) ;
#156 = VECTOR ( 'NONE', #71, 1000.000000000000000 ) ;
#157 = DIRECTION ( 'NONE',  ( 1.000000000000000000, 0.000000000000000000, 0.000000000000000000 ) ) ;
#158 = DIRECTION ( 'NONE',  ( -0.000000000000000000, -0.000000000000000000, -1.000000000000000000 ) ) ;
#159 = SECURITY_CLASSIFICATION ( '', '', #98 ) ;
#160 = APPLICATION_CONTEXT ( 'configuration controlled 3d designs of mechanical parts and assemblies' ) ;
#161 = ORIENTED_EDGE ( 'NONE', *, *, #111, .T. ) ;
#162 = CARTESIAN_POINT ( 'NONE',  ( -12.50000000000000000, 12.50000000000000000, 3.000000000000000000 ) ) ;
#163 = ORIENTED_EDGE ( 'NONE', *, *, #136, .F. ) ;
#164 = CARTESIAN_POINT ( 'NONE',  ( -12.50000000000000000, 12.50000000000000000, 0.000000000000000000 ) ) ;
#165 = CC_DESIGN_PERSON_AND_ORGANIZATION_ASSIGNMENT ( #208, #21, ( #212 ) ) ;
#166 = APPROVAL_STATUS ( 'not_yet_approved' ) ;
#167 = PERSON_AND_ORGANIZATION_ROLE ( 'classification_officer' ) ;
#168 = APPROVAL_STATUS ( 'not_yet_approved' ) ;
#169 = ORIENTED_EDGE ( 'NONE', *, *, #35, .T. ) ;
#170 = CC_DESIGN_PERSON_AND_ORGANIZATION_ASSIGNMENT ( #45, #167, ( #159 ) ) ;
#171 = ORIENTED_EDGE ( 'NONE', *, *, #20, .F. ) ;
#172 = LINE ( 'NONE', #49, #5 ) ;
#173 = ADVANCED_FACE ( 'NONE', ( #22 ), #56, .F. ) ;
#174 = DIRECTION ( 'NONE',  ( -0.000000000000000000, -0.000000000000000000, -1.000000000000000000 ) ) ;
#175 = CC_DESIGN_DATE_AND_TIME_ASSIGNMENT ( #176, #220, ( #212 ) ) ;
#176 = DATE_AND_TIME ( #204, #131 ) ;
#177 = VERTEX_POINT ( 'NONE', #110 ) ;
#178 = DIRECTION ( 'NONE',  ( -1.387778780781445676E-16, 1.000000000000000000, -0.000000000000000000 ) ) ;
#179 = DIRECTION ( 'NONE',  ( 1.387778780781445429E-16, -1.000000000000000000, 0.000000000000000000 ) ) ;
#180 =( GEOMETRIC_REPRESENTATION_CONTEXT ( 3 ) GLOBAL_UNCERTAINTY_ASSIGNED_CONTEXT ( ( #103 ) ) GLOBAL_UNIT_ASSIGNED_CONTEXT ( ( #233, #122, #142 ) ) REPRESENTATION_CONTEXT ( 'NONE', 'WORKASPACE' ) );
#181 = ORIENTED_EDGE ( 'NONE', *, *, #30, .F. ) ;
#182 = CARTESIAN_POINT ( 'NONE',  ( 12.50000000000000355, -12.50000000000000000, 3.000000000000000000 ) ) ;
#183 = VECTOR ( 'NONE', #234, 1000.000000000000000 ) ;
#184 = DIRECTION ( 'NONE',  ( -1.387778780781445429E-16, 1.000000000000000000, 0.000000000000000000 ) ) ;
#185 = DIRECTION ( 'NONE',  ( 1.000000000000000000, 0.000000000000000000, 0.000000000000000000 ) ) ;
#186 = DIRECTION ( 'NONE',  ( 0.000000000000000000, -0.000000000000000000, -1.000000000000000000 ) ) ;
#187 = ORIENTED_EDGE ( 'NONE', *, *, #75, .F. ) ;
#188 = VERTEX_POINT ( 'NONE', #198 ) ;
#189 = APPROVAL_DATE_TIME ( #126, #190 ) ;
#190 = APPROVAL ( #168, 'UNSPECIFIED' ) ;
#191 = FACE_OUTER_BOUND ( 'NONE', #123, .T. ) ;
#192 = ORIENTED_EDGE ( 'NONE', *, *, #116, .T. ) ;
#193 = AXIS2_PLACEMENT_3D ( 'NONE', #214, #143, #33 ) ;
#194 = VECTOR ( 'NONE', #158, 1000.000000000000000 ) ;
#195 = COORDINATED_UNIVERSAL_TIME_OFFSET ( 5, 0, .BEHIND. ) ;
#196 = ORIENTED_EDGE ( 'NONE', *, *, #237, .T. ) ;
#197 = LINE ( 'NONE', #182, #156 ) ;
#198 = CARTESIAN_POINT ( 'NONE',  ( 12.50000000000000000, 12.50000000000000000, 0.000000000000000000 ) ) ;
#199 = CARTESIAN_POINT ( 'NONE',  ( 12.50000000000000355, -12.50000000000000000, 3.000000000000000000 ) ) ;
#200 = COORDINATED_UNIVERSAL_TIME_OFFSET ( 5, 0, .BEHIND. ) ;
#201 = CALENDAR_DATE ( 2021, 30, 6 ) ;
#202 = VECTOR ( 'NONE', #215, 1000.000000000000000 ) ;
#203 = DIRECTION ( 'NONE',  ( 1.000000000000000000, 0.000000000000000000, 0.000000000000000000 ) ) ;
#204 = CALENDAR_DATE ( 2021, 30, 6 ) ;
#205 = APPLICATION_CONTEXT ( 'configuration controlled 3d designs of mechanical parts and assemblies' ) ;
#206 = PERSON_AND_ORGANIZATION ( #227, #210 ) ;
#207 = PERSON_AND_ORGANIZATION ( #227, #210 ) ;
#208 = PERSON_AND_ORGANIZATION ( #227, #210 ) ;
#209 = ORIENTED_EDGE ( 'NONE', *, *, #75, .T. ) ;
#210 = ORGANIZATION ( 'UNSPECIFIED', 'UNSPECIFIED', '' ) ;
#211 = ADVANCED_FACE ( 'NONE', ( #58 ), #34, .F. ) ;
#212 = PRODUCT_DEFINITION ( 'UNKNOWN', '', #1, #80 ) ;
#213 = PRODUCT_DEFINITION_SHAPE ( 'NONE', 'NONE',  #212 ) ;
#214 = CARTESIAN_POINT ( 'NONE',  ( 0.000000000000000000, 0.000000000000000000, 0.000000000000000000 ) ) ;
#215 = DIRECTION ( 'NONE',  ( 1.387778780781445676E-16, -1.000000000000000000, 0.000000000000000000 ) ) ;
#216 = CARTESIAN_POINT ( 'NONE',  ( 12.50000000000000000, 12.50000000000000000, 3.000000000000000000 ) ) ;
#217 = CARTESIAN_POINT ( 'NONE',  ( -12.49999999999999645, -12.50000000000000000, 0.000000000000000000 ) ) ;
#218 = APPROVAL_ROLE ( '' ) ;
#219 = EDGE_CURVE ( 'NONE', #188, #140, #4, .T. ) ;
#220 = DATE_TIME_ROLE ( 'creation_date' ) ;
#221 = DATE_TIME_ROLE ( 'classification_date' ) ;
#222 = ORIENTED_EDGE ( 'NONE', *, *, #219, .T. ) ;
#223 = COORDINATED_UNIVERSAL_TIME_OFFSET ( 5, 0, .BEHIND. ) ;
#224 = LINE ( 'NONE', #102, #27 ) ;
#225 = VERTEX_POINT ( 'NONE', #162 ) ;
#226 = CC_DESIGN_APPROVAL ( #118, ( #212 ) ) ;
#227 = PERSON ( 'UNSPECIFIED', 'UNSPECIFIED', 'UNSPECIFIED', ('UNSPECIFIED'), ('UNSPECIFIED'), ('UNSPECIFIED') ) ;
#228 = VECTOR ( 'NONE', #54, 1000.000000000000000 ) ;
#229 = APPROVAL_DATE_TIME ( #31, #118 ) ;
#230 = LINE ( 'NONE', #217, #81 ) ;
#231 = PRODUCT_RELATED_PRODUCT_CATEGORY ( 'detail', '', ( #74 ) ) ;
#232 = ORIENTED_EDGE ( 'NONE', *, *, #35, .F. ) ;
#233 =( LENGTH_UNIT ( ) NAMED_UNIT ( * ) SI_UNIT ( .MILLI., .METRE. ) );
#234 = DIRECTION ( 'NONE',  ( -1.387778780781445676E-16, 1.000000000000000000, -0.000000000000000000 ) ) ;
#235 = CALENDAR_DATE ( 2021, 30, 6 ) ;
#236 = LINE ( 'NONE', #85, #86 ) ;
#237 = EDGE_CURVE ( 'NONE', #43, #89, #141, .T. ) ;
ENDSEC;
END-ISO-10303-21;
