ISO-10303-21;
HEADER;
FILE_DESCRIPTION (( 'STEP AP203' ),
    '1' );
FILE_NAME ('Web Model 31432_31432.step',
    '2017-04-10T18:13:45',
    ( '' ),
    ( '' ),
    'SwSTEP 2.0',
    'SolidWorks 2016',
    '' );
FILE_SCHEMA (( 'CONFIG_CONTROL_DESIGN' ));
ENDSEC;

DATA;
#1 = CARTESIAN_POINT ( 'NONE',  ( -25.50000000000000000, -37.99999999999999300, 1.500000000000000000 ) ) ;
#2 = ORIENTED_EDGE ( 'NONE', *, *, #83, .T. ) ;
#3 = DIRECTION ( 'NONE',  ( 1.369518533665900300E-016, -1.000000000000000000, 0.0000000000000000000 ) ) ;
#4 = CARTESIAN_POINT ( 'NONE',  ( -25.50000000000000700, 38.00000000000000700, -1.500000000000000000 ) ) ;
#5 = ORIENTED_EDGE ( 'NONE', *, *, #196, .T. ) ;
#6 = EDGE_LOOP ( 'NONE', ( #80, #129, #106, #154 ) ) ;
#7 = ORIENTED_EDGE ( 'NONE', *, *, #169, .T. ) ;
#8 = ORIENTED_EDGE ( 'NONE', *, *, #26, .F. ) ;
#9 = CC_DESIGN_PERSON_AND_ORGANIZATION_ASSIGNMENT ( #179, #45, ( #205 ) ) ;
#10 = VERTEX_POINT ( 'NONE', #187 ) ;
#11 = ORIENTED_EDGE ( 'NONE', *, *, #151, .T. ) ;
#12 =( NAMED_UNIT ( * ) PLANE_ANGLE_UNIT ( ) SI_UNIT ( $, .RADIAN. ) );
#13 = VECTOR ( 'NONE', #200, 1000.000000000000000 ) ;
#14 = CARTESIAN_POINT ( 'NONE',  ( -25.50000000000000700, 38.00000000000000700, 1.500000000000000000 ) ) ;
#15 = FACE_OUTER_BOUND ( 'NONE', #195, .T. ) ;
#16 = DATE_AND_TIME ( #114, #122 ) ;
#17 = DIRECTION ( 'NONE',  ( -0.0000000000000000000, -0.0000000000000000000, -1.000000000000000000 ) ) ;
#18 = ORIENTED_EDGE ( 'NONE', *, *, #113, .T. ) ;
#19 = CARTESIAN_POINT ( 'NONE',  ( 25.49999999999998600, 38.00000000000000700, -1.500000000000000000 ) ) ;
#20 = APPROVAL_DATE_TIME ( #92, #157 ) ;
#21 = ORIENTED_EDGE ( 'NONE', *, *, #169, .F. ) ;
#22 = ORIENTED_EDGE ( 'NONE', *, *, #180, .F. ) ;
#23 = LINE ( 'NONE', #39, #99 ) ;
#24 = DATE_TIME_ROLE ( 'creation_date' ) ;
#25 = PERSON_AND_ORGANIZATION ( #229, #44 ) ;
#26 = EDGE_CURVE ( 'NONE', #166, #235, #104, .T. ) ;
#27 = CALENDAR_DATE ( 2017, 10, 4 ) ;
#28 = DIRECTION ( 'NONE',  ( -0.0000000000000000000, -0.0000000000000000000, -1.000000000000000000 ) ) ;
#29 = ADVANCED_FACE ( 'NONE', ( #15 ), #47, .T. ) ;
#30 = AXIS2_PLACEMENT_3D ( 'NONE', #57, #131, #72 ) ;
#31 = DATE_AND_TIME ( #198, #181 ) ;
#32 = EDGE_CURVE ( 'NONE', #170, #235, #182, .T. ) ;
#33 = FACE_OUTER_BOUND ( 'NONE', #121, .T. ) ;
#34 = CC_DESIGN_APPROVAL ( #157, ( #205 ) ) ;
#35 = APPLICATION_PROTOCOL_DEFINITION ( 'international standard', 'config_control_design', 1994, #58 ) ;
#36 = APPLICATION_CONTEXT ( 'configuration controlled 3d designs of mechanical parts and assemblies' ) ;
#37 = LINE ( 'NONE', #1, #97 ) ;
#38 = SHAPE_DEFINITION_REPRESENTATION ( #197, #118 ) ;
#39 = CARTESIAN_POINT ( 'NONE',  ( -25.50000000000000700, 38.00000000000000700, 1.500000000000000000 ) ) ;
#40 =( LENGTH_UNIT ( ) NAMED_UNIT ( * ) SI_UNIT ( .MILLI., .METRE. ) );
#41 = LOCAL_TIME ( 14, 13, 45.00000000000000000, #219 ) ;
#42 = DIRECTION ( 'NONE',  ( -1.000000000000000000, -0.0000000000000000000, -0.0000000000000000000 ) ) ;
#43 = ADVANCED_FACE ( 'NONE', ( #163 ), #94, .F. ) ;
#44 = ORGANIZATION ( 'UNSPECIFIED', 'UNSPECIFIED', '' ) ;
#45 = PERSON_AND_ORGANIZATION_ROLE ( 'creator' ) ;
#46 = VERTEX_POINT ( 'NONE', #137 ) ;
#47 = PLANE ( 'NONE',  #222 ) ;
#48 = CLOSED_SHELL ( 'NONE', ( #52, #43, #208, #61, #29, #141 ) ) ;
#49 = LINE ( 'NONE', #4, #51 ) ;
#50 = COORDINATED_UNIVERSAL_TIME_OFFSET ( 5, 0, .BEHIND. ) ;
#51 = VECTOR ( 'NONE', #109, 1000.000000000000000 ) ;
#52 = ADVANCED_FACE ( 'NONE', ( #142 ), #216, .F. ) ;
#53 = VECTOR ( 'NONE', #3, 1000.000000000000000 ) ;
#54 = CARTESIAN_POINT ( 'NONE',  ( 0.0000000000000000000, 0.0000000000000000000, 1.500000000000000000 ) ) ;
#55 = PERSON_AND_ORGANIZATION_ROLE ( 'classification_officer' ) ;
#56 = COORDINATED_UNIVERSAL_TIME_OFFSET ( 5, 0, .BEHIND. ) ;
#57 = CARTESIAN_POINT ( 'NONE',  ( -25.50000000000000700, 38.00000000000000700, 1.500000000000000000 ) ) ;
#58 = APPLICATION_CONTEXT ( 'configuration controlled 3d designs of mechanical parts and assemblies' ) ;
#59 = VECTOR ( 'NONE', #42, 1000.000000000000000 ) ;
#60 = CALENDAR_DATE ( 2017, 10, 4 ) ;
#61 = ADVANCED_FACE ( 'NONE', ( #65 ), #185, .F. ) ;
#62 = CC_DESIGN_APPROVAL ( #90, ( #96 ) ) ;
#63 = CARTESIAN_POINT ( 'NONE',  ( 25.49999999999998600, 38.00000000000000700, 1.500000000000000000 ) ) ;
#64 = PERSON_AND_ORGANIZATION ( #229, #44 ) ;
#65 = FACE_OUTER_BOUND ( 'NONE', #191, .T. ) ;
#66 = DIRECTION ( 'NONE',  ( 1.000000000000000000, 0.0000000000000000000, 0.0000000000000000000 ) ) ;
#67 = VERTEX_POINT ( 'NONE', #115 ) ;
#68 = APPROVAL_ROLE ( '' ) ;
#69 =( GEOMETRIC_REPRESENTATION_CONTEXT ( 3 ) GLOBAL_UNCERTAINTY_ASSIGNED_CONTEXT ( ( #88 ) ) GLOBAL_UNIT_ASSIGNED_CONTEXT ( ( #40, #12, #234 ) ) REPRESENTATION_CONTEXT ( 'NONE', 'WORKASPACE' ) );
#70 = ORIENTED_EDGE ( 'NONE', *, *, #107, .F. ) ;
#71 = PERSON_AND_ORGANIZATION_ROLE ( 'design_supplier' ) ;
#72 = DIRECTION ( 'NONE',  ( -1.369518533665900100E-016, 1.000000000000000000, 0.0000000000000000000 ) ) ;
#73 = EDGE_CURVE ( 'NONE', #212, #166, #171, .T. ) ;
#74 = APPROVAL_DATE_TIME ( #172, #164 ) ;
#75 = DIRECTION ( 'NONE',  ( -1.369518533665900300E-016, 1.000000000000000000, -0.0000000000000000000 ) ) ;
#76 = CARTESIAN_POINT ( 'NONE',  ( 0.0000000000000000000, 0.0000000000000000000, 0.0000000000000000000 ) ) ;
#77 = PLANE ( 'NONE',  #100 ) ;
#78 = PERSON_AND_ORGANIZATION ( #229, #44 ) ;
#79 = MECHANICAL_CONTEXT ( 'NONE', #36, 'mechanical' ) ;
#80 = ORIENTED_EDGE ( 'NONE', *, *, #26, .T. ) ;
#81 = VECTOR ( 'NONE', #28, 1000.000000000000000 ) ;
#82 = APPLICATION_PROTOCOL_DEFINITION ( 'international standard', 'config_control_design', 1994, #36 ) ;
#83 = EDGE_CURVE ( 'NONE', #10, #166, #160, .T. ) ;
#84 = AXIS2_PLACEMENT_3D ( 'NONE', #85, #236, #124 ) ;
#85 = CARTESIAN_POINT ( 'NONE',  ( -25.50000000000000700, 38.00000000000000700, 1.500000000000000000 ) ) ;
#86 = VECTOR ( 'NONE', #183, 1000.000000000000000 ) ;
#87 = PERSON_AND_ORGANIZATION_ROLE ( 'design_owner' ) ;
#88 = UNCERTAINTY_MEASURE_WITH_UNIT (LENGTH_MEASURE( 1.000000000000000100E-005 ), #40, 'distance_accuracy_value', 'NONE');
#89 = CARTESIAN_POINT ( 'NONE',  ( 25.49999999999999600, -37.99999999999999300, 1.500000000000000000 ) ) ;
#90 = APPROVAL ( #103, 'UNSPECIFIED' ) ;
#91 = COORDINATED_UNIVERSAL_TIME_OFFSET ( 5, 0, .BEHIND. ) ;
#92 = DATE_AND_TIME ( #27, #41 ) ;
#93 = CARTESIAN_POINT ( 'NONE',  ( -25.50000000000000700, 38.00000000000000700, 1.500000000000000000 ) ) ;
#94 = PLANE ( 'NONE',  #84 ) ;
#95 = DIRECTION ( 'NONE',  ( 1.000000000000000000, 0.0000000000000000000, 0.0000000000000000000 ) ) ;
#96 = SECURITY_CLASSIFICATION ( '', '', #225 ) ;
#97 = VECTOR ( 'NONE', #95, 1000.000000000000000 ) ;
#98 = EDGE_LOOP ( 'NONE', ( #8, #144, #21, #22 ) ) ;
#99 = VECTOR ( 'NONE', #192, 1000.000000000000000 ) ;
#100 = AXIS2_PLACEMENT_3D ( 'NONE', #127, #194, #66 ) ;
#101 = CARTESIAN_POINT ( 'NONE',  ( 25.49999999999999600, -37.99999999999999300, 1.500000000000000000 ) ) ;
#102 = CARTESIAN_POINT ( 'NONE',  ( -25.50000000000000700, 38.00000000000000700, -1.500000000000000000 ) ) ;
#103 = APPROVAL_STATUS ( 'not_yet_approved' ) ;
#104 = LINE ( 'NONE', #19, #86 ) ;
#105 = CC_DESIGN_PERSON_AND_ORGANIZATION_ASSIGNMENT ( #230, #87, ( #211 ) ) ;
#106 = ORIENTED_EDGE ( 'NONE', *, *, #113, .F. ) ;
#107 = EDGE_CURVE ( 'NONE', #138, #46, #175, .T. ) ;
#108 = ORIENTED_EDGE ( 'NONE', *, *, #196, .F. ) ;
#109 = DIRECTION ( 'NONE',  ( 1.369518533665900300E-016, -1.000000000000000000, 0.0000000000000000000 ) ) ;
#110 = LINE ( 'NONE', #102, #59 ) ;
#111 = MANIFOLD_SOLID_BREP ( 'Boss-Extrude1', #48 ) ;
#112 = APPROVAL_PERSON_ORGANIZATION ( #184, #164, #68 ) ;
#113 = EDGE_CURVE ( 'NONE', #212, #170, #233, .T. ) ;
#114 = CALENDAR_DATE ( 2017, 10, 4 ) ;
#115 = CARTESIAN_POINT ( 'NONE',  ( -25.50000000000000000, -37.99999999999999300, 1.500000000000000000 ) ) ;
#116 = CC_DESIGN_DATE_AND_TIME_ASSIGNMENT ( #148, #165, ( #96 ) ) ;
#117 = FACE_OUTER_BOUND ( 'NONE', #98, .T. ) ;
#118 = ADVANCED_BREP_SHAPE_REPRESENTATION ( 'Web Model 31432_31432', ( #111, #167 ), #69 ) ;
#119 = PRODUCT_RELATED_PRODUCT_CATEGORY ( 'detail', '', ( #211 ) ) ;
#120 = CARTESIAN_POINT ( 'NONE',  ( 25.49999999999998600, 38.00000000000000700, 1.500000000000000000 ) ) ;
#121 = EDGE_LOOP ( 'NONE', ( #7, #140, #108, #228 ) ) ;
#122 = LOCAL_TIME ( 14, 13, 45.00000000000000000, #50 ) ;
#123 = EDGE_CURVE ( 'NONE', #67, #212, #37, .T. ) ;
#124 = DIRECTION ( 'NONE',  ( 0.0000000000000000000, -0.0000000000000000000, -1.000000000000000000 ) ) ;
#125 = LOCAL_TIME ( 14, 13, 45.00000000000000000, #156 ) ;
#126 = LINE ( 'NONE', #214, #177 ) ;
#127 = CARTESIAN_POINT ( 'NONE',  ( 0.0000000000000000000, 0.0000000000000000000, -1.500000000000000000 ) ) ;
#128 = APPROVAL_PERSON_ORGANIZATION ( #78, #90, #190 ) ;
#129 = ORIENTED_EDGE ( 'NONE', *, *, #32, .F. ) ;
#130 = ORIENTED_EDGE ( 'NONE', *, *, #123, .F. ) ;
#131 = DIRECTION ( 'NONE',  ( 1.000000000000000000, 1.369518533665900100E-016, -0.0000000000000000000 ) ) ;
#132 = EDGE_CURVE ( 'NONE', #67, #10, #126, .T. ) ;
#133 = ORIENTED_EDGE ( 'NONE', *, *, #132, .T. ) ;
#134 = DIRECTION ( 'NONE',  ( -0.0000000000000000000, -0.0000000000000000000, -1.000000000000000000 ) ) ;
#135 = PERSON_AND_ORGANIZATION ( #229, #44 ) ;
#136 = AXIS2_PLACEMENT_3D ( 'NONE', #147, #152, #150 ) ;
#137 = CARTESIAN_POINT ( 'NONE',  ( -25.50000000000000700, 38.00000000000000700, -1.500000000000000000 ) ) ;
#138 = VERTEX_POINT ( 'NONE', #14 ) ;
#139 = LINE ( 'NONE', #93, #53 ) ;
#140 = ORIENTED_EDGE ( 'NONE', *, *, #132, .F. ) ;
#141 = ADVANCED_FACE ( 'NONE', ( #117 ), #77, .F. ) ;
#142 = FACE_OUTER_BOUND ( 'NONE', #6, .T. ) ;
#143 = CC_DESIGN_DATE_AND_TIME_ASSIGNMENT ( #31, #24, ( #149 ) ) ;
#144 = ORIENTED_EDGE ( 'NONE', *, *, #83, .F. ) ;
#145 = DIRECTION ( 'NONE',  ( -0.0000000000000000000, 0.0000000000000000000, 1.000000000000000000 ) ) ;
#146 = APPROVAL_STATUS ( 'not_yet_approved' ) ;
#147 = CARTESIAN_POINT ( 'NONE',  ( 25.49999999999998600, 38.00000000000000700, 1.500000000000000000 ) ) ;
#148 = DATE_AND_TIME ( #217, #201 ) ;
#149 = PRODUCT_DEFINITION ( 'UNKNOWN', '', #205, #223 ) ;
#150 = DIRECTION ( 'NONE',  ( 1.369518533665900100E-016, -1.000000000000000000, 0.0000000000000000000 ) ) ;
#151 = EDGE_CURVE ( 'NONE', #170, #138, #23, .T. ) ;
#152 = DIRECTION ( 'NONE',  ( -1.000000000000000000, -1.369518533665900100E-016, 0.0000000000000000000 ) ) ;
#153 = AXIS2_PLACEMENT_3D ( 'NONE', #232, #231, #186 ) ;
#154 = ORIENTED_EDGE ( 'NONE', *, *, #73, .T. ) ;
#155 = CC_DESIGN_PERSON_AND_ORGANIZATION_ASSIGNMENT ( #64, #55, ( #96 ) ) ;
#156 = COORDINATED_UNIVERSAL_TIME_OFFSET ( 5, 0, .BEHIND. ) ;
#157 = APPROVAL ( #178, 'UNSPECIFIED' ) ;
#158 = ORIENTED_EDGE ( 'NONE', *, *, #123, .T. ) ;
#159 = CC_DESIGN_PERSON_AND_ORGANIZATION_ASSIGNMENT ( #209, #71, ( #205 ) ) ;
#160 = LINE ( 'NONE', #226, #13 ) ;
#161 = VECTOR ( 'NONE', #75, 1000.000000000000000 ) ;
#162 = PERSON_AND_ORGANIZATION_ROLE ( 'creator' ) ;
#163 = FACE_OUTER_BOUND ( 'NONE', #227, .T. ) ;
#164 = APPROVAL ( #146, 'UNSPECIFIED' ) ;
#165 = DATE_TIME_ROLE ( 'classification_date' ) ;
#166 = VERTEX_POINT ( 'NONE', #204 ) ;
#167 = AXIS2_PLACEMENT_3D ( 'NONE', #76, #224, #221 ) ;
#168 = ORIENTED_EDGE ( 'NONE', *, *, #151, .F. ) ;
#169 = EDGE_CURVE ( 'NONE', #46, #10, #49, .T. ) ;
#170 = VERTEX_POINT ( 'NONE', #63 ) ;
#171 = LINE ( 'NONE', #89, #188 ) ;
#172 = DATE_AND_TIME ( #60, #125 ) ;
#173 = DIRECTION ( 'NONE',  ( 1.000000000000000000, 0.0000000000000000000, 0.0000000000000000000 ) ) ;
#174 = ORIENTED_EDGE ( 'NONE', *, *, #180, .T. ) ;
#175 = LINE ( 'NONE', #202, #81 ) ;
#176 = CARTESIAN_POINT ( 'NONE',  ( 25.49999999999998600, 38.00000000000000700, 1.500000000000000000 ) ) ;
#177 = VECTOR ( 'NONE', #17, 1000.000000000000000 ) ;
#178 = APPROVAL_STATUS ( 'not_yet_approved' ) ;
#179 = PERSON_AND_ORGANIZATION ( #229, #44 ) ;
#180 = EDGE_CURVE ( 'NONE', #235, #46, #110, .T. ) ;
#181 = LOCAL_TIME ( 14, 13, 45.00000000000000000, #91 ) ;
#182 = LINE ( 'NONE', #120, #213 ) ;
#183 = DIRECTION ( 'NONE',  ( -1.369518533665900300E-016, 1.000000000000000000, -0.0000000000000000000 ) ) ;
#184 = PERSON_AND_ORGANIZATION ( #229, #44 ) ;
#185 = PLANE ( 'NONE',  #153 ) ;
#186 = DIRECTION ( 'NONE',  ( 0.0000000000000000000, -0.0000000000000000000, 1.000000000000000000 ) ) ;
#187 = CARTESIAN_POINT ( 'NONE',  ( -25.50000000000000000, -37.99999999999999300, -1.500000000000000000 ) ) ;
#188 = VECTOR ( 'NONE', #134, 1000.000000000000000 ) ;
#189 = PLANE ( 'NONE',  #30 ) ;
#190 = APPROVAL_ROLE ( '' ) ;
#191 = EDGE_LOOP ( 'NONE', ( #2, #193, #130, #133 ) ) ;
#192 = DIRECTION ( 'NONE',  ( -1.000000000000000000, -0.0000000000000000000, -0.0000000000000000000 ) ) ;
#193 = ORIENTED_EDGE ( 'NONE', *, *, #73, .F. ) ;
#194 = DIRECTION ( 'NONE',  ( -0.0000000000000000000, 0.0000000000000000000, 1.000000000000000000 ) ) ;
#195 = EDGE_LOOP ( 'NONE', ( #18, #11, #5, #158 ) ) ;
#196 = EDGE_CURVE ( 'NONE', #138, #67, #139, .T. ) ;
#197 = PRODUCT_DEFINITION_SHAPE ( 'NONE', 'NONE',  #149 ) ;
#198 = CALENDAR_DATE ( 2017, 10, 4 ) ;
#199 = APPROVAL_PERSON_ORGANIZATION ( #135, #157, #206 ) ;
#200 = DIRECTION ( 'NONE',  ( 1.000000000000000000, 0.0000000000000000000, 0.0000000000000000000 ) ) ;
#201 = LOCAL_TIME ( 14, 13, 45.00000000000000000, #56 ) ;
#202 = CARTESIAN_POINT ( 'NONE',  ( -25.50000000000000700, 38.00000000000000700, 1.500000000000000000 ) ) ;
#203 = CARTESIAN_POINT ( 'NONE',  ( 25.49999999999998600, 38.00000000000000700, -1.500000000000000000 ) ) ;
#204 = CARTESIAN_POINT ( 'NONE',  ( 25.49999999999999600, -37.99999999999999300, -1.500000000000000000 ) ) ;
#205 = PRODUCT_DEFINITION_FORMATION_WITH_SPECIFIED_SOURCE ( 'ANY', '', #211, .NOT_KNOWN. ) ;
#206 = APPROVAL_ROLE ( '' ) ;
#207 = CC_DESIGN_APPROVAL ( #164, ( #149 ) ) ;
#208 = ADVANCED_FACE ( 'NONE', ( #33 ), #189, .F. ) ;
#209 = PERSON_AND_ORGANIZATION ( #229, #44 ) ;
#210 = ORIENTED_EDGE ( 'NONE', *, *, #32, .T. ) ;
#211 = PRODUCT ( 'Web Model 31432_31432', 'Web Model 31432_31432', '', ( #79 ) ) ;
#212 = VERTEX_POINT ( 'NONE', #101 ) ;
#213 = VECTOR ( 'NONE', #218, 1000.000000000000000 ) ;
#214 = CARTESIAN_POINT ( 'NONE',  ( -25.50000000000000000, -37.99999999999999300, 1.500000000000000000 ) ) ;
#215 = APPROVAL_DATE_TIME ( #16, #90 ) ;
#216 = PLANE ( 'NONE',  #136 ) ;
#217 = CALENDAR_DATE ( 2017, 10, 4 ) ;
#218 = DIRECTION ( 'NONE',  ( -0.0000000000000000000, -0.0000000000000000000, -1.000000000000000000 ) ) ;
#219 = COORDINATED_UNIVERSAL_TIME_OFFSET ( 5, 0, .BEHIND. ) ;
#220 = CC_DESIGN_SECURITY_CLASSIFICATION ( #96, ( #205 ) ) ;
#221 = DIRECTION ( 'NONE',  ( 1.000000000000000000, 0.0000000000000000000, 0.0000000000000000000 ) ) ;
#222 = AXIS2_PLACEMENT_3D ( 'NONE', #54, #145, #173 ) ;
#223 = DESIGN_CONTEXT ( 'detailed design', #58, 'design' ) ;
#224 = DIRECTION ( 'NONE',  ( 0.0000000000000000000, 0.0000000000000000000, 1.000000000000000000 ) ) ;
#225 = SECURITY_CLASSIFICATION_LEVEL ( 'unclassified' ) ;
#226 = CARTESIAN_POINT ( 'NONE',  ( -25.50000000000000000, -37.99999999999999300, -1.500000000000000000 ) ) ;
#227 = EDGE_LOOP ( 'NONE', ( #174, #70, #168, #210 ) ) ;
#228 = ORIENTED_EDGE ( 'NONE', *, *, #107, .T. ) ;
#229 = PERSON ( 'UNSPECIFIED', 'UNSPECIFIED', 'UNSPECIFIED', ('UNSPECIFIED'), ('UNSPECIFIED'), ('UNSPECIFIED') ) ;
#230 = PERSON_AND_ORGANIZATION ( #229, #44 ) ;
#231 = DIRECTION ( 'NONE',  ( 0.0000000000000000000, 1.000000000000000000, 0.0000000000000000000 ) ) ;
#232 = CARTESIAN_POINT ( 'NONE',  ( -25.50000000000000000, -37.99999999999999300, 1.500000000000000000 ) ) ;
#233 = LINE ( 'NONE', #176, #161 ) ;
#234 =( NAMED_UNIT ( * ) SI_UNIT ( $, .STERADIAN. ) SOLID_ANGLE_UNIT ( ) );
#235 = VERTEX_POINT ( 'NONE', #203 ) ;
#236 = DIRECTION ( 'NONE',  ( 0.0000000000000000000, -1.000000000000000000, 0.0000000000000000000 ) ) ;
#237 = CC_DESIGN_PERSON_AND_ORGANIZATION_ASSIGNMENT ( #25, #162, ( #149 ) ) ;
ENDSEC;
END-ISO-10303-21;
