ISO-10303-21;
HEADER;
FILE_DESCRIPTION (( 'STEP AP203' ),
    '1' );
FILE_NAME ('Web Model 39401_39414.step',
    '2018-10-05T20:54:53',
    ( '' ),
    ( '' ),
    'SwSTEP 2.0',
    'SolidWorks 2016',
    '' );
FILE_SCHEMA (( 'CONFIG_CONTROL_DESIGN' ));
ENDSEC;

DATA;
#1 = CC_DESIGN_APPROVAL ( #166, ( #133 ) ) ;
#2 = CYLINDRICAL_SURFACE ( 'NONE', #153, 25.39999999999999900 ) ;
#3 = AXIS2_PLACEMENT_3D ( 'NONE', #23, #78, #117 ) ;
#4 = DATE_AND_TIME ( #124, #114 ) ;
#5 = UNCERTAINTY_MEASURE_WITH_UNIT (LENGTH_MEASURE( 1.000000000000000100E-005 ), #129, 'distance_accuracy_value', 'NONE');
#6 = CARTESIAN_POINT ( 'NONE',  ( -25.39999999999999900, 0.0000000000000000000, 1.000000000000000000 ) ) ;
#7 = APPROVAL_STATUS ( 'not_yet_approved' ) ;
#8 = ORIENTED_EDGE ( 'NONE', *, *, #91, .F. ) ;
#9 = CARTESIAN_POINT ( 'NONE',  ( 25.39999999999999900, 3.110602869834276900E-015, 1.000000000000000000 ) ) ;
#10 = DIRECTION ( 'NONE',  ( 1.000000000000000000, 0.0000000000000000000, 0.0000000000000000000 ) ) ;
#11 = ADVANCED_BREP_SHAPE_REPRESENTATION ( 'Web Model 39401_39414', ( #120, #3 ), #171 ) ;
#12 = DIRECTION ( 'NONE',  ( -0.0000000000000000000, -0.0000000000000000000, -1.000000000000000000 ) ) ;
#13 = ORIENTED_EDGE ( 'NONE', *, *, #97, .T. ) ;
#14 = DATE_TIME_ROLE ( 'classification_date' ) ;
#15 = DATE_AND_TIME ( #32, #170 ) ;
#16 = PERSON_AND_ORGANIZATION ( #92, #107 ) ;
#17 = FACE_OUTER_BOUND ( 'NONE', #35, .T. ) ;
#18 = CALENDAR_DATE ( 2018, 5, 10 ) ;
#19 = SECURITY_CLASSIFICATION ( '', '', #62 ) ;
#20 = VERTEX_POINT ( 'NONE', #83 ) ;
#21 = CARTESIAN_POINT ( 'NONE',  ( 25.39999999999999900, 3.110602869834276900E-015, 1.000000000000000000 ) ) ;
#22 = CARTESIAN_POINT ( 'NONE',  ( -25.39999999999999900, 0.0000000000000000000, -1.000000000000000000 ) ) ;
#23 = CARTESIAN_POINT ( 'NONE',  ( 0.0000000000000000000, 0.0000000000000000000, 0.0000000000000000000 ) ) ;
#24 = DIRECTION ( 'NONE',  ( 1.000000000000000000, 0.0000000000000000000, -0.0000000000000000000 ) ) ;
#25 = PERSON_AND_ORGANIZATION_ROLE ( 'creator' ) ;
#26 = COORDINATED_UNIVERSAL_TIME_OFFSET ( 5, 0, .BEHIND. ) ;
#27 = PERSON_AND_ORGANIZATION_ROLE ( 'classification_officer' ) ;
#28 = ORIENTED_EDGE ( 'NONE', *, *, #91, .T. ) ;
#29 = APPROVAL_ROLE ( '' ) ;
#30 = APPROVAL ( #7, 'UNSPECIFIED' ) ;
#31 = APPROVAL_PERSON_ORGANIZATION ( #54, #79, #29 ) ;
#32 = CALENDAR_DATE ( 2018, 5, 10 ) ;
#33 = CC_DESIGN_PERSON_AND_ORGANIZATION_ASSIGNMENT ( #94, #27, ( #19 ) ) ;
#34 = LOCAL_TIME ( 16, 54, 53.00000000000000000, #40 ) ;
#35 = EDGE_LOOP ( 'NONE', ( #75, #109, #138, #66 ) ) ;
#36 = CARTESIAN_POINT ( 'NONE',  ( 0.0000000000000000000, 0.0000000000000000000, 1.000000000000000000 ) ) ;
#37 = FACE_OUTER_BOUND ( 'NONE', #141, .T. ) ;
#38 = DIRECTION ( 'NONE',  ( 0.0000000000000000000, 0.0000000000000000000, 1.000000000000000000 ) ) ;
#39 = DIRECTION ( 'NONE',  ( -0.0000000000000000000, -0.0000000000000000000, -1.000000000000000000 ) ) ;
#40 = COORDINATED_UNIVERSAL_TIME_OFFSET ( 5, 0, .BEHIND. ) ;
#41 = CIRCLE ( 'NONE', #145, 25.39999999999999900 ) ;
#42 = EDGE_LOOP ( 'NONE', ( #13, #28 ) ) ;
#43 = PRODUCT ( 'Web Model 39401_39414', 'Web Model 39401_39414', '', ( #172 ) ) ;
#44 = DESIGN_CONTEXT ( 'detailed design', #102, 'design' ) ;
#45 = VERTEX_POINT ( 'NONE', #22 ) ;
#46 = CC_DESIGN_APPROVAL ( #30, ( #116 ) ) ;
#47 = DATE_AND_TIME ( #67, #161 ) ;
#48 = DIRECTION ( 'NONE',  ( 1.000000000000000000, 0.0000000000000000000, -0.0000000000000000000 ) ) ;
#49 = APPLICATION_CONTEXT ( 'configuration controlled 3d designs of mechanical parts and assemblies' ) ;
#50 = EDGE_CURVE ( 'NONE', #58, #45, #63, .T. ) ;
#51 = PERSON_AND_ORGANIZATION ( #92, #107 ) ;
#52 = AXIS2_PLACEMENT_3D ( 'NONE', #136, #38, #137 ) ;
#53 = PERSON_AND_ORGANIZATION ( #92, #107 ) ;
#54 = PERSON_AND_ORGANIZATION ( #92, #107 ) ;
#55 = FACE_OUTER_BOUND ( 'NONE', #42, .T. ) ;
#56 = PRODUCT_RELATED_PRODUCT_CATEGORY ( 'detail', '', ( #43 ) ) ;
#57 = COORDINATED_UNIVERSAL_TIME_OFFSET ( 5, 0, .BEHIND. ) ;
#58 = VERTEX_POINT ( 'NONE', #98 ) ;
#59 = AXIS2_PLACEMENT_3D ( 'NONE', #70, #112, #111 ) ;
#60 = PERSON_AND_ORGANIZATION_ROLE ( 'design_supplier' ) ;
#61 =( NAMED_UNIT ( * ) PLANE_ANGLE_UNIT ( ) SI_UNIT ( $, .RADIAN. ) );
#62 = SECURITY_CLASSIFICATION_LEVEL ( 'unclassified' ) ;
#63 = LINE ( 'NONE', #6, #164 ) ;
#64 = ORIENTED_EDGE ( 'NONE', *, *, #159, .T. ) ;
#65 = ADVANCED_FACE ( 'NONE', ( #37 ), #135, .F. ) ;
#66 = ORIENTED_EDGE ( 'NONE', *, *, #126, .T. ) ;
#67 = CALENDAR_DATE ( 2018, 5, 10 ) ;
#68 = CIRCLE ( 'NONE', #52, 25.39999999999999900 ) ;
#69 = PLANE ( 'NONE',  #162 ) ;
#70 = CARTESIAN_POINT ( 'NONE',  ( 0.0000000000000000000, 0.0000000000000000000, 1.000000000000000000 ) ) ;
#71 = CARTESIAN_POINT ( 'NONE',  ( 0.0000000000000000000, 0.0000000000000000000, -1.000000000000000000 ) ) ;
#72 = CARTESIAN_POINT ( 'NONE',  ( 0.0000000000000000000, 0.0000000000000000000, 1.000000000000000000 ) ) ;
#73 = COORDINATED_UNIVERSAL_TIME_OFFSET ( 5, 0, .BEHIND. ) ;
#74 = CC_DESIGN_PERSON_AND_ORGANIZATION_ASSIGNMENT ( #167, #76, ( #43 ) ) ;
#75 = ORIENTED_EDGE ( 'NONE', *, *, #159, .F. ) ;
#76 = PERSON_AND_ORGANIZATION_ROLE ( 'design_owner' ) ;
#77 = CC_DESIGN_PERSON_AND_ORGANIZATION_ASSIGNMENT ( #122, #60, ( #116 ) ) ;
#78 = DIRECTION ( 'NONE',  ( 0.0000000000000000000, 0.0000000000000000000, 1.000000000000000000 ) ) ;
#79 = APPROVAL ( #104, 'UNSPECIFIED' ) ;
#80 = APPROVAL_DATE_TIME ( #163, #166 ) ;
#81 = CALENDAR_DATE ( 2018, 5, 10 ) ;
#82 = CIRCLE ( 'NONE', #59, 25.39999999999999900 ) ;
#83 = CARTESIAN_POINT ( 'NONE',  ( 25.39999999999999900, 3.110602869834276900E-015, -1.000000000000000000 ) ) ;
#84 = DIRECTION ( 'NONE',  ( 0.0000000000000000000, 0.0000000000000000000, 1.000000000000000000 ) ) ;
#85 = DIRECTION ( 'NONE',  ( -0.0000000000000000000, -0.0000000000000000000, -1.000000000000000000 ) ) ;
#86 =( NAMED_UNIT ( * ) SI_UNIT ( $, .STERADIAN. ) SOLID_ANGLE_UNIT ( ) );
#87 = DATE_AND_TIME ( #18, #34 ) ;
#88 = ORIENTED_EDGE ( 'NONE', *, *, #144, .F. ) ;
#89 = DATE_TIME_ROLE ( 'creation_date' ) ;
#90 = APPROVAL_ROLE ( '' ) ;
#91 = EDGE_CURVE ( 'NONE', #105, #58, #82, .T. ) ;
#92 = PERSON ( 'UNSPECIFIED', 'UNSPECIFIED', 'UNSPECIFIED', ('UNSPECIFIED'), ('UNSPECIFIED'), ('UNSPECIFIED') ) ;
#93 = APPROVAL_DATE_TIME ( #15, #79 ) ;
#94 = PERSON_AND_ORGANIZATION ( #92, #107 ) ;
#95 = ORIENTED_EDGE ( 'NONE', *, *, #144, .T. ) ;
#96 = ADVANCED_FACE ( 'NONE', ( #106 ), #149, .T. ) ;
#97 = EDGE_CURVE ( 'NONE', #58, #105, #68, .T. ) ;
#98 = CARTESIAN_POINT ( 'NONE',  ( -25.39999999999999900, 0.0000000000000000000, 1.000000000000000000 ) ) ;
#99 = DIRECTION ( 'NONE',  ( 0.0000000000000000000, 0.0000000000000000000, 1.000000000000000000 ) ) ;
#100 = DIRECTION ( 'NONE',  ( -1.000000000000000000, 0.0000000000000000000, 0.0000000000000000000 ) ) ;
#101 = VECTOR ( 'NONE', #12, 1000.000000000000000 ) ;
#102 = APPLICATION_CONTEXT ( 'configuration controlled 3d designs of mechanical parts and assemblies' ) ;
#103 = PERSON_AND_ORGANIZATION_ROLE ( 'creator' ) ;
#104 = APPROVAL_STATUS ( 'not_yet_approved' ) ;
#105 = VERTEX_POINT ( 'NONE', #21 ) ;
#106 = FACE_OUTER_BOUND ( 'NONE', #113, .T. ) ;
#107 = ORGANIZATION ( 'UNSPECIFIED', 'UNSPECIFIED', '' ) ;
#108 = AXIS2_PLACEMENT_3D ( 'NONE', #71, #84, #48 ) ;
#109 = ORIENTED_EDGE ( 'NONE', *, *, #97, .F. ) ;
#110 = CC_DESIGN_DATE_AND_TIME_ASSIGNMENT ( #87, #14, ( #19 ) ) ;
#111 = DIRECTION ( 'NONE',  ( 1.000000000000000000, 0.0000000000000000000, 0.0000000000000000000 ) ) ;
#112 = DIRECTION ( 'NONE',  ( 0.0000000000000000000, 0.0000000000000000000, 1.000000000000000000 ) ) ;
#113 = EDGE_LOOP ( 'NONE', ( #8, #64, #95, #146 ) ) ;
#114 = LOCAL_TIME ( 16, 54, 53.00000000000000000, #26 ) ;
#115 = CLOSED_SHELL ( 'NONE', ( #96, #131, #155, #65 ) ) ;
#116 = PRODUCT_DEFINITION_FORMATION_WITH_SPECIFIED_SOURCE ( 'ANY', '', #43, .NOT_KNOWN. ) ;
#117 = DIRECTION ( 'NONE',  ( 1.000000000000000000, 0.0000000000000000000, 0.0000000000000000000 ) ) ;
#118 = CC_DESIGN_SECURITY_CLASSIFICATION ( #19, ( #116 ) ) ;
#119 = APPROVAL_PERSON_ORGANIZATION ( #51, #166, #142 ) ;
#120 = MANIFOLD_SOLID_BREP ( 'Boss-Extrude1', #115 ) ;
#121 = CC_DESIGN_PERSON_AND_ORGANIZATION_ASSIGNMENT ( #16, #25, ( #133 ) ) ;
#122 = PERSON_AND_ORGANIZATION ( #92, #107 ) ;
#123 = AXIS2_PLACEMENT_3D ( 'NONE', #139, #99, #125 ) ;
#124 = CALENDAR_DATE ( 2018, 5, 10 ) ;
#125 = DIRECTION ( 'NONE',  ( 1.000000000000000000, 0.0000000000000000000, 0.0000000000000000000 ) ) ;
#126 = EDGE_CURVE ( 'NONE', #45, #20, #174, .T. ) ;
#127 = PERSON_AND_ORGANIZATION ( #92, #107 ) ;
#128 = ORIENTED_EDGE ( 'NONE', *, *, #126, .F. ) ;
#129 =( LENGTH_UNIT ( ) NAMED_UNIT ( * ) SI_UNIT ( .MILLI., .METRE. ) );
#130 = CC_DESIGN_PERSON_AND_ORGANIZATION_ASSIGNMENT ( #127, #103, ( #116 ) ) ;
#131 = ADVANCED_FACE ( 'NONE', ( #17 ), #2, .T. ) ;
#132 = APPROVAL_PERSON_ORGANIZATION ( #53, #30, #90 ) ;
#133 = PRODUCT_DEFINITION ( 'UNKNOWN', '', #116, #44 ) ;
#134 = LINE ( 'NONE', #9, #101 ) ;
#135 = PLANE ( 'NONE',  #108 ) ;
#136 = CARTESIAN_POINT ( 'NONE',  ( 0.0000000000000000000, 0.0000000000000000000, 1.000000000000000000 ) ) ;
#137 = DIRECTION ( 'NONE',  ( 1.000000000000000000, 0.0000000000000000000, 0.0000000000000000000 ) ) ;
#138 = ORIENTED_EDGE ( 'NONE', *, *, #50, .T. ) ;
#139 = CARTESIAN_POINT ( 'NONE',  ( 0.0000000000000000000, 0.0000000000000000000, -1.000000000000000000 ) ) ;
#140 = APPLICATION_PROTOCOL_DEFINITION ( 'international standard', 'config_control_design', 1994, #49 ) ;
#141 = EDGE_LOOP ( 'NONE', ( #128, #88 ) ) ;
#142 = APPROVAL_ROLE ( '' ) ;
#143 = CC_DESIGN_APPROVAL ( #79, ( #19 ) ) ;
#144 = EDGE_CURVE ( 'NONE', #20, #45, #41, .T. ) ;
#145 = AXIS2_PLACEMENT_3D ( 'NONE', #147, #168, #10 ) ;
#146 = ORIENTED_EDGE ( 'NONE', *, *, #50, .F. ) ;
#147 = CARTESIAN_POINT ( 'NONE',  ( 0.0000000000000000000, 0.0000000000000000000, -1.000000000000000000 ) ) ;
#148 = APPROVAL_DATE_TIME ( #47, #30 ) ;
#149 = CYLINDRICAL_SURFACE ( 'NONE', #169, 25.39999999999999900 ) ;
#150 = DIRECTION ( 'NONE',  ( -0.0000000000000000000, -0.0000000000000000000, -1.000000000000000000 ) ) ;
#151 = CC_DESIGN_DATE_AND_TIME_ASSIGNMENT ( #4, #89, ( #133 ) ) ;
#152 = CARTESIAN_POINT ( 'NONE',  ( 0.0000000000000000000, 0.0000000000000000000, 1.000000000000000000 ) ) ;
#153 = AXIS2_PLACEMENT_3D ( 'NONE', #72, #85, #100 ) ;
#154 = DIRECTION ( 'NONE',  ( -1.000000000000000000, 0.0000000000000000000, 0.0000000000000000000 ) ) ;
#155 = ADVANCED_FACE ( 'NONE', ( #55 ), #69, .T. ) ;
#156 = DIRECTION ( 'NONE',  ( 0.0000000000000000000, 0.0000000000000000000, 1.000000000000000000 ) ) ;
#157 = PRODUCT_DEFINITION_SHAPE ( 'NONE', 'NONE',  #133 ) ;
#158 = LOCAL_TIME ( 16, 54, 53.00000000000000000, #57 ) ;
#159 = EDGE_CURVE ( 'NONE', #105, #20, #134, .T. ) ;
#160 = APPLICATION_PROTOCOL_DEFINITION ( 'international standard', 'config_control_design', 1994, #102 ) ;
#161 = LOCAL_TIME ( 16, 54, 53.00000000000000000, #165 ) ;
#162 = AXIS2_PLACEMENT_3D ( 'NONE', #152, #156, #24 ) ;
#163 = DATE_AND_TIME ( #81, #158 ) ;
#164 = VECTOR ( 'NONE', #39, 1000.000000000000000 ) ;
#165 = COORDINATED_UNIVERSAL_TIME_OFFSET ( 5, 0, .BEHIND. ) ;
#166 = APPROVAL ( #173, 'UNSPECIFIED' ) ;
#167 = PERSON_AND_ORGANIZATION ( #92, #107 ) ;
#168 = DIRECTION ( 'NONE',  ( 0.0000000000000000000, 0.0000000000000000000, 1.000000000000000000 ) ) ;
#169 = AXIS2_PLACEMENT_3D ( 'NONE', #36, #150, #154 ) ;
#170 = LOCAL_TIME ( 16, 54, 53.00000000000000000, #73 ) ;
#171 =( GEOMETRIC_REPRESENTATION_CONTEXT ( 3 ) GLOBAL_UNCERTAINTY_ASSIGNED_CONTEXT ( ( #5 ) ) GLOBAL_UNIT_ASSIGNED_CONTEXT ( ( #129, #61, #86 ) ) REPRESENTATION_CONTEXT ( 'NONE', 'WORKASPACE' ) );
#172 = MECHANICAL_CONTEXT ( 'NONE', #49, 'mechanical' ) ;
#173 = APPROVAL_STATUS ( 'not_yet_approved' ) ;
#174 = CIRCLE ( 'NONE', #123, 25.39999999999999900 ) ;
#175 = SHAPE_DEFINITION_REPRESENTATION ( #157, #11 ) ;
ENDSEC;
END-ISO-10303-21;
