ISO-10303-21;
HEADER;
FILE_DESCRIPTION (( 'STEP AP203' ),
    '1' );
FILE_NAME ('Web Model 11858_11861.step',
    '2019-01-10T19:39:19',
    ( '' ),
    ( '' ),
    'SwSTEP 2.0',
    'SolidWorks 2016',
    '' );
FILE_SCHEMA (( 'CONFIG_CONTROL_DESIGN' ));
ENDSEC;

DATA;
#1 = EDGE_CURVE ( 'NONE', #178, #76, #275, .T. ) ;
#2 = DIRECTION ( 'NONE',  ( 0.0000000000000000000, 0.0000000000000000000, -1.000000000000000000 ) ) ;
#3 = PLANE ( 'NONE',  #212 ) ;
#4 = ORIENTED_EDGE ( 'NONE', *, *, #32, .T. ) ;
#5 = DIRECTION ( 'NONE',  ( 0.0000000000000000000, 0.0000000000000000000, -1.000000000000000000 ) ) ;
#6 = ADVANCED_FACE ( 'NONE', ( #170 ), #206, .T. ) ;
#7 = DIRECTION ( 'NONE',  ( 1.000000000000000000, -0.0000000000000000000, -0.0000000000000000000 ) ) ;
#8 = FACE_OUTER_BOUND ( 'NONE', #117, .T. ) ;
#9 =( NAMED_UNIT ( * ) SI_UNIT ( $, .STERADIAN. ) SOLID_ANGLE_UNIT ( ) );
#10 = PLANE ( 'NONE',  #39 ) ;
#11 = DATE_TIME_ROLE ( 'creation_date' ) ;
#12 = ORIENTED_EDGE ( 'NONE', *, *, #173, .T. ) ;
#13 = CARTESIAN_POINT ( 'NONE',  ( 5.000000000000000000, 0.0000000000000000000, 0.0000000000000000000 ) ) ;
#14 = ORIENTED_EDGE ( 'NONE', *, *, #155, .T. ) ;
#15 = APPROVAL ( #199, 'UNSPECIFIED' ) ;
#16 = PERSON_AND_ORGANIZATION ( #219, #85 ) ;
#17 = EDGE_LOOP ( 'NONE', ( #19, #108, #229, #154 ) ) ;
#18 = DIRECTION ( 'NONE',  ( -0.7071067811865279200, 8.659560562355175700E-017, -0.7071067811865672200 ) ) ;
#19 = ORIENTED_EDGE ( 'NONE', *, *, #36, .F. ) ;
#20 = PRODUCT_DEFINITION_FORMATION_WITH_SPECIFIED_SOURCE ( 'ANY', '', #26, .NOT_KNOWN. ) ;
#21 = ORIENTED_EDGE ( 'NONE', *, *, #120, .T. ) ;
#22 = EDGE_LOOP ( 'NONE', ( #93, #251, #21, #125 ) ) ;
#23 = PERSON_AND_ORGANIZATION ( #219, #85 ) ;
#24 = CARTESIAN_POINT ( 'NONE',  ( -4.750000000000000000, 0.0000000000000000000, 0.0000000000000000000 ) ) ;
#25 = ORIENTED_EDGE ( 'NONE', *, *, #36, .T. ) ;
#26 = PRODUCT ( 'Web Model 11858_11861', 'Web Model 11858_11861', '', ( #220 ) ) ;
#27 = CC_DESIGN_APPROVAL ( #15, ( #226 ) ) ;
#28 = CARTESIAN_POINT ( 'NONE',  ( 0.0000000000000000000, 0.0000000000000000000, 0.0000000000000000000 ) ) ;
#29 = ADVANCED_FACE ( 'NONE', ( #55 ), #54, .T. ) ;
#30 = CIRCLE ( 'NONE', #74, 75.00000000000001400 ) ;
#32 = EDGE_CURVE ( 'NONE', #165, #62, #150, .T. ) ;
#31 = DIRECTION ( 'NONE',  ( 0.0000000000000000000, 0.0000000000000000000, -1.000000000000000000 ) ) ;
#33 = PERSON_AND_ORGANIZATION_ROLE ( 'creator' ) ;
#34 = PERSON_AND_ORGANIZATION ( #219, #85 ) ;
#35 = SHAPE_DEFINITION_REPRESENTATION ( #133, #271 ) ;
#36 = EDGE_CURVE ( 'NONE', #76, #244, #243, .T. ) ;
#37 = EDGE_CURVE ( 'NONE', #60, #62, #48, .T. ) ;
#38 = LINE ( 'NONE', #132, #134 ) ;
#39 = AXIS2_PLACEMENT_3D ( 'NONE', #151, #53, #31 ) ;
#40 = CYLINDRICAL_SURFACE ( 'NONE', #230, 75.00000000000001400 ) ;
#41 = CARTESIAN_POINT ( 'NONE',  ( -4.750000000000000000, 0.0000000000000000000, 0.0000000000000000000 ) ) ;
#42 = CC_DESIGN_DATE_AND_TIME_ASSIGNMENT ( #115, #61, ( #196 ) ) ;
#43 = APPROVAL_DATE_TIME ( #209, #90 ) ;
#44 = VECTOR ( 'NONE', #273, 1000.000000000000000 ) ;
#45 = AXIS2_PLACEMENT_3D ( 'NONE', #192, #7, #262 ) ;
#46 = DIRECTION ( 'NONE',  ( 0.0000000000000000000, 0.0000000000000000000, -1.000000000000000000 ) ) ;
#47 = CARTESIAN_POINT ( 'NONE',  ( 5.000000000000000000, 0.0000000000000000000, 74.75000000000009900 ) ) ;
#48 = CIRCLE ( 'NONE', #45, 75.00000000000001400 ) ;
#49 = VERTEX_POINT ( 'NONE', #167 ) ;
#50 = DIRECTION ( 'NONE',  ( 0.7071067811865671100, 8.659560562354692500E-017, 0.7071067811865279200 ) ) ;
#51 = DIRECTION ( 'NONE',  ( -1.000000000000000000, -0.0000000000000000000, -0.0000000000000000000 ) ) ;
#52 = CARTESIAN_POINT ( 'NONE',  ( 4.750000000000096800, 0.0000000000000000000, 75.00000000000001400 ) ) ;
#53 = DIRECTION ( 'NONE',  ( 1.000000000000000000, 0.0000000000000000000, 0.0000000000000000000 ) ) ;
#54 = CONICAL_SURFACE ( 'NONE', #69, 75.00000000000001400, 0.7853981633974206300 ) ;
#55 = FACE_OUTER_BOUND ( 'NONE', #272, .T. ) ;
#56 = ADVANCED_FACE ( 'NONE', ( #8 ), #94, .T. ) ;
#57 = PERSON_AND_ORGANIZATION_ROLE ( 'design_owner' ) ;
#58 = APPLICATION_CONTEXT ( 'configuration controlled 3d designs of mechanical parts and assemblies' ) ;
#59 = PERSON_AND_ORGANIZATION ( #219, #85 ) ;
#60 = VERTEX_POINT ( 'NONE', #142 ) ;
#61 = DATE_TIME_ROLE ( 'classification_date' ) ;
#62 = VERTEX_POINT ( 'NONE', #241 ) ;
#63 = CALENDAR_DATE ( 2019, 10, 1 ) ;
#64 = VECTOR ( 'NONE', #122, 1000.000000000000000 ) ;
#65 = ORIENTED_EDGE ( 'NONE', *, *, #120, .F. ) ;
#66 = PRODUCT_RELATED_PRODUCT_CATEGORY ( 'detail', '', ( #26 ) ) ;
#67 = CC_DESIGN_SECURITY_CLASSIFICATION ( #196, ( #20 ) ) ;
#68 = CARTESIAN_POINT ( 'NONE',  ( 5.000000000000000000, 9.169542908615813200E-015, -74.75000000000009900 ) ) ;
#69 = AXIS2_PLACEMENT_3D ( 'NONE', #41, #237, #257 ) ;
#70 = DIRECTION ( 'NONE',  ( 0.0000000000000000000, 0.0000000000000000000, -1.000000000000000000 ) ) ;
#71 = ADVANCED_FACE ( 'NONE', ( #111 ), #217, .T. ) ;
#72 = ORIENTED_EDGE ( 'NONE', *, *, #82, .F. ) ;
#74 = AXIS2_PLACEMENT_3D ( 'NONE', #144, #240, #5 ) ;
#73 = APPROVAL_ROLE ( '' ) ;
#75 = CALENDAR_DATE ( 2019, 10, 1 ) ;
#76 = VERTEX_POINT ( 'NONE', #68 ) ;
#77 = APPROVAL_STATUS ( 'not_yet_approved' ) ;
#78 = ADVANCED_FACE ( 'NONE', ( #169 ), #207, .T. ) ;
#79 =( LENGTH_UNIT ( ) NAMED_UNIT ( * ) SI_UNIT ( .MILLI., .METRE. ) );
#80 = DESIGN_CONTEXT ( 'detailed design', #248, 'design' ) ;
#81 = MANIFOLD_SOLID_BREP ( 'Chamfer1', #88 ) ;
#82 = EDGE_CURVE ( 'NONE', #49, #165, #269, .T. ) ;
#83 = EDGE_CURVE ( 'NONE', #175, #244, #30, .T. ) ;
#84 = EDGE_CURVE ( 'NONE', #49, #60, #104, .T. ) ;
#85 = ORGANIZATION ( 'UNSPECIFIED', 'UNSPECIFIED', '' ) ;
#86 = DIRECTION ( 'NONE',  ( 0.0000000000000000000, 0.0000000000000000000, 1.000000000000000000 ) ) ;
#87 = EDGE_LOOP ( 'NONE', ( #141, #25, #208, #249 ) ) ;
#88 = CLOSED_SHELL ( 'NONE', ( #78, #56, #6, #129, #267, #95, #29, #71 ) ) ;
#89 = DIRECTION ( 'NONE',  ( -1.000000000000000000, 0.0000000000000000000, 0.0000000000000000000 ) ) ;
#90 = APPROVAL ( #77, 'UNSPECIFIED' ) ;
#91 = APPROVAL_DATE_TIME ( #101, #15 ) ;
#92 = CARTESIAN_POINT ( 'NONE',  ( -5.000000000000000000, 0.0000000000000000000, 0.0000000000000000000 ) ) ;
#93 = ORIENTED_EDGE ( 'NONE', *, *, #83, .T. ) ;
#94 = CONICAL_SURFACE ( 'NONE', #221, 75.00000000000001400, 0.7853981633974206300 ) ;
#95 = ADVANCED_FACE ( 'NONE', ( #137 ), #3, .F. ) ;
#96 = PERSON_AND_ORGANIZATION_ROLE ( 'creator' ) ;
#97 = AXIS2_PLACEMENT_3D ( 'NONE', #24, #166, #70 ) ;
#98 = FACE_OUTER_BOUND ( 'NONE', #197, .T. ) ;
#99 = PERSON_AND_ORGANIZATION ( #219, #85 ) ;
#100 = AXIS2_PLACEMENT_3D ( 'NONE', #119, #162, #259 ) ;
#101 = DATE_AND_TIME ( #75, #160 ) ;
#102 = APPROVAL ( #223, 'UNSPECIFIED' ) ;
#103 = DATE_AND_TIME ( #63, #263 ) ;
#104 = LINE ( 'NONE', #124, #252 ) ;
#105 = ORIENTED_EDGE ( 'NONE', *, *, #37, .F. ) ;
#106 = EDGE_CURVE ( 'NONE', #175, #60, #265, .T. ) ;
#107 = CARTESIAN_POINT ( 'NONE',  ( 5.000000000000000000, 0.0000000000000000000, 74.75000000000009900 ) ) ;
#108 = ORIENTED_EDGE ( 'NONE', *, *, #1, .F. ) ;
#109 = DIRECTION ( 'NONE',  ( -1.000000000000000000, -0.0000000000000000000, -0.0000000000000000000 ) ) ;
#110 = DIRECTION ( 'NONE',  ( 1.000000000000000000, 0.0000000000000000000, 0.0000000000000000000 ) ) ;
#111 = FACE_OUTER_BOUND ( 'NONE', #17, .T. ) ;
#112 = PERSON_AND_ORGANIZATION_ROLE ( 'design_supplier' ) ;
#113 = CC_DESIGN_APPROVAL ( #90, ( #20 ) ) ;
#114 = COORDINATED_UNIVERSAL_TIME_OFFSET ( 5, 0, .BEHIND. ) ;
#115 = DATE_AND_TIME ( #131, #254 ) ;
#116 =( GEOMETRIC_REPRESENTATION_CONTEXT ( 3 ) GLOBAL_UNCERTAINTY_ASSIGNED_CONTEXT ( ( #147 ) ) GLOBAL_UNIT_ASSIGNED_CONTEXT ( ( #79, #127, #9 ) ) REPRESENTATION_CONTEXT ( 'NONE', 'WORKASPACE' ) );
#117 = EDGE_LOOP ( 'NONE', ( #72, #227, #65, #180 ) ) ;
#118 = DATE_AND_TIME ( #228, #274 ) ;
#119 = CARTESIAN_POINT ( 'NONE',  ( -5.000000000000000000, 0.0000000000000000000, 0.0000000000000000000 ) ) ;
#120 = EDGE_CURVE ( 'NONE', #62, #60, #205, .T. ) ;
#121 = CARTESIAN_POINT ( 'NONE',  ( 5.000000000000000000, 0.0000000000000000000, 0.0000000000000000000 ) ) ;
#122 = DIRECTION ( 'NONE',  ( -1.000000000000000000, -0.0000000000000000000, -0.0000000000000000000 ) ) ;
#123 = CC_DESIGN_APPROVAL ( #102, ( #196 ) ) ;
#124 = CARTESIAN_POINT ( 'NONE',  ( -4.750000000000000000, 9.184850993605150300E-015, 75.00000000000001400 ) ) ;
#125 = ORIENTED_EDGE ( 'NONE', *, *, #106, .F. ) ;
#126 = CARTESIAN_POINT ( 'NONE',  ( 5.000000000000000000, 0.0000000000000000000, 0.0000000000000000000 ) ) ;
#127 =( NAMED_UNIT ( * ) PLANE_ANGLE_UNIT ( ) SI_UNIT ( $, .RADIAN. ) );
#128 = ORIENTED_EDGE ( 'NONE', *, *, #82, .T. ) ;
#129 = ADVANCED_FACE ( 'NONE', ( #149 ), #40, .T. ) ;
#130 = DIRECTION ( 'NONE',  ( -1.000000000000000000, -0.0000000000000000000, -0.0000000000000000000 ) ) ;
#131 = CALENDAR_DATE ( 2019, 10, 1 ) ;
#132 = CARTESIAN_POINT ( 'NONE',  ( 5.000000000000000000, 9.184850993605150300E-015, -75.00000000000001400 ) ) ;
#133 = PRODUCT_DEFINITION_SHAPE ( 'NONE', 'NONE',  #226 ) ;
#134 = VECTOR ( 'NONE', #130, 1000.000000000000000 ) ;
#135 = EDGE_CURVE ( 'NONE', #178, #175, #190, .T. ) ;
#136 = COORDINATED_UNIVERSAL_TIME_OFFSET ( 5, 0, .BEHIND. ) ;
#137 = FACE_OUTER_BOUND ( 'NONE', #218, .T. ) ;
#138 = CARTESIAN_POINT ( 'NONE',  ( 5.000000000000000000, 9.154234823626477600E-015, -74.75000000000009900 ) ) ;
#139 = LOCAL_TIME ( 14, 39, 19.00000000000000000, #114 ) ;
#140 = VECTOR ( 'NONE', #143, 1000.000000000000000 ) ;
#141 = ORIENTED_EDGE ( 'NONE', *, *, #253, .F. ) ;
#142 = CARTESIAN_POINT ( 'NONE',  ( -4.750000000000000000, 0.0000000000000000000, 75.00000000000001400 ) ) ;
#143 = DIRECTION ( 'NONE',  ( -0.7071067811865279200, 0.0000000000000000000, 0.7071067811865672200 ) ) ;
#144 = CARTESIAN_POINT ( 'NONE',  ( 4.750000000000096800, 0.0000000000000000000, 0.0000000000000000000 ) ) ;
#145 = AXIS2_PLACEMENT_3D ( 'NONE', #126, #89, #215 ) ;
#146 = DIRECTION ( 'NONE',  ( -1.000000000000000000, 0.0000000000000000000, 0.0000000000000000000 ) ) ;
#147 = UNCERTAINTY_MEASURE_WITH_UNIT (LENGTH_MEASURE( 1.000000000000000100E-005 ), #79, 'distance_accuracy_value', 'NONE');
#148 = CALENDAR_DATE ( 2019, 10, 1 ) ;
#149 = FACE_OUTER_BOUND ( 'NONE', #213, .T. ) ;
#150 = LINE ( 'NONE', #234, #44 ) ;
#151 = CARTESIAN_POINT ( 'NONE',  ( 5.000000000000000000, 0.0000000000000000000, 0.0000000000000000000 ) ) ;
#153 = AXIS2_PLACEMENT_3D ( 'NONE', #183, #186, #86 ) ;
#152 = PERSON_AND_ORGANIZATION_ROLE ( 'classification_officer' ) ;
#154 = ORIENTED_EDGE ( 'NONE', *, *, #173, .F. ) ;
#155 = EDGE_CURVE ( 'NONE', #165, #49, #195, .T. ) ;
#156 = CC_DESIGN_PERSON_AND_ORGANIZATION_ASSIGNMENT ( #99, #112, ( #20 ) ) ;
#157 = ORIENTED_EDGE ( 'NONE', *, *, #106, .T. ) ;
#158 = COORDINATED_UNIVERSAL_TIME_OFFSET ( 5, 0, .BEHIND. ) ;
#159 = DIRECTION ( 'NONE',  ( 0.0000000000000000000, 0.0000000000000000000, -1.000000000000000000 ) ) ;
#160 = LOCAL_TIME ( 14, 39, 19.00000000000000000, #136 ) ;
#161 = CC_DESIGN_PERSON_AND_ORGANIZATION_ASSIGNMENT ( #34, #33, ( #226 ) ) ;
#162 = DIRECTION ( 'NONE',  ( -1.000000000000000000, -0.0000000000000000000, -0.0000000000000000000 ) ) ;
#163 = APPROVAL_PERSON_ORGANIZATION ( #16, #90, #73 ) ;
#164 = ORIENTED_EDGE ( 'NONE', *, *, #37, .T. ) ;
#165 = VERTEX_POINT ( 'NONE', #216 ) ;
#166 = DIRECTION ( 'NONE',  ( 1.000000000000000000, -0.0000000000000000000, -0.0000000000000000000 ) ) ;
#167 = CARTESIAN_POINT ( 'NONE',  ( -5.000000000000000000, 9.169542908615810000E-015, 74.75000000000002800 ) ) ;
#168 = DIRECTION ( 'NONE',  ( 0.0000000000000000000, 0.0000000000000000000, 1.000000000000000000 ) ) ;
#169 = FACE_OUTER_BOUND ( 'NONE', #87, .T. ) ;
#170 = FACE_OUTER_BOUND ( 'NONE', #22, .T. ) ;
#171 = CARTESIAN_POINT ( 'NONE',  ( 4.750000000000096800, 9.184850993605150300E-015, -75.00000000000001400 ) ) ;
#173 = EDGE_CURVE ( 'NONE', #244, #175, #255, .T. ) ;
#172 = DIRECTION ( 'NONE',  ( 1.000000000000000000, 0.0000000000000000000, 0.0000000000000000000 ) ) ;
#174 = DIRECTION ( 'NONE',  ( 0.0000000000000000000, 0.0000000000000000000, 1.000000000000000000 ) ) ;
#175 = VERTEX_POINT ( 'NONE', #52 ) ;
#176 = APPLICATION_PROTOCOL_DEFINITION ( 'international standard', 'config_control_design', 1994, #248 ) ;
#177 = AXIS2_PLACEMENT_3D ( 'NONE', #28, #174, #172 ) ;
#178 = VERTEX_POINT ( 'NONE', #47 ) ;
#179 = CC_DESIGN_PERSON_AND_ORGANIZATION_ASSIGNMENT ( #204, #96, ( #20 ) ) ;
#180 = ORIENTED_EDGE ( 'NONE', *, *, #32, .F. ) ;
#181 = EDGE_CURVE ( 'NONE', #244, #62, #38, .T. ) ;
#182 = PERSON_AND_ORGANIZATION ( #219, #85 ) ;
#183 = CARTESIAN_POINT ( 'NONE',  ( 5.000000000000000000, 0.0000000000000000000, 0.0000000000000000000 ) ) ;
#184 = CARTESIAN_POINT ( 'NONE',  ( 5.000000000000000000, 0.0000000000000000000, 0.0000000000000000000 ) ) ;
#185 = AXIS2_PLACEMENT_3D ( 'NONE', #184, #235, #159 ) ;
#186 = DIRECTION ( 'NONE',  ( -1.000000000000000000, -0.0000000000000000000, -0.0000000000000000000 ) ) ;
#187 = DIRECTION ( 'NONE',  ( 0.0000000000000000000, 0.0000000000000000000, 1.000000000000000000 ) ) ;
#188 = CC_DESIGN_PERSON_AND_ORGANIZATION_ASSIGNMENT ( #59, #57, ( #26 ) ) ;
#189 = COORDINATED_UNIVERSAL_TIME_OFFSET ( 5, 0, .BEHIND. ) ;
#190 = LINE ( 'NONE', #107, #140 ) ;
#191 = DIRECTION ( 'NONE',  ( 1.000000000000000000, -0.0000000000000000000, -0.0000000000000000000 ) ) ;
#192 = CARTESIAN_POINT ( 'NONE',  ( -4.750000000000000000, 0.0000000000000000000, 0.0000000000000000000 ) ) ;
#193 = DIRECTION ( 'NONE',  ( 1.000000000000000000, 0.0000000000000000000, 0.0000000000000000000 ) ) ;
#194 = DIRECTION ( 'NONE',  ( -1.000000000000000000, 0.0000000000000000000, 0.0000000000000000000 ) ) ;
#195 = CIRCLE ( 'NONE', #100, 74.75000000000002800 ) ;
#196 = SECURITY_CLASSIFICATION ( '', '', #246 ) ;
#197 = EDGE_LOOP ( 'NONE', ( #210, #245 ) ) ;
#198 = APPROVAL_ROLE ( '' ) ;
#199 = APPROVAL_STATUS ( 'not_yet_approved' ) ;
#200 = APPROVAL_ROLE ( '' ) ;
#201 = APPROVAL_PERSON_ORGANIZATION ( #23, #15, #198 ) ;
#202 = CIRCLE ( 'NONE', #260, 74.75000000000009900 ) ;
#203 = CC_DESIGN_PERSON_AND_ORGANIZATION_ASSIGNMENT ( #264, #152, ( #196 ) ) ;
#204 = PERSON_AND_ORGANIZATION ( #219, #85 ) ;
#205 = CIRCLE ( 'NONE', #97, 75.00000000000001400 ) ;
#206 = CYLINDRICAL_SURFACE ( 'NONE', #153, 75.00000000000001400 ) ;
#207 = CONICAL_SURFACE ( 'NONE', #145, 74.75000000000009900, 0.7853981633974761500 ) ;
#208 = ORIENTED_EDGE ( 'NONE', *, *, #83, .F. ) ;
#209 = DATE_AND_TIME ( #148, #139 ) ;
#210 = ORIENTED_EDGE ( 'NONE', *, *, #1, .T. ) ;
#211 = CARTESIAN_POINT ( 'NONE',  ( -4.750000000000000000, 0.0000000000000000000, 0.0000000000000000000 ) ) ;
#212 = AXIS2_PLACEMENT_3D ( 'NONE', #92, #110, #238 ) ;
#213 = EDGE_LOOP ( 'NONE', ( #224, #12, #157, #164 ) ) ;
#214 = CARTESIAN_POINT ( 'NONE',  ( 5.000000000000000000, 0.0000000000000000000, 0.0000000000000000000 ) ) ;
#215 = DIRECTION ( 'NONE',  ( 0.0000000000000000000, 0.0000000000000000000, 1.000000000000000000 ) ) ;
#216 = CARTESIAN_POINT ( 'NONE',  ( -5.000000000000000000, 0.0000000000000000000, -74.75000000000002800 ) ) ;
#217 = CONICAL_SURFACE ( 'NONE', #236, 74.75000000000009900, 0.7853981633974761500 ) ;
#218 = EDGE_LOOP ( 'NONE', ( #14, #128 ) ) ;
#219 = PERSON ( 'UNSPECIFIED', 'UNSPECIFIED', 'UNSPECIFIED', ('UNSPECIFIED'), ('UNSPECIFIED'), ('UNSPECIFIED') ) ;
#221 = AXIS2_PLACEMENT_3D ( 'NONE', #211, #191, #46 ) ;
#220 = MECHANICAL_CONTEXT ( 'NONE', #58, 'mechanical' ) ;
#222 = APPLICATION_PROTOCOL_DEFINITION ( 'international standard', 'config_control_design', 1994, #58 ) ;
#223 = APPROVAL_STATUS ( 'not_yet_approved' ) ;
#224 = ORIENTED_EDGE ( 'NONE', *, *, #181, .F. ) ;
#225 = DIRECTION ( 'NONE',  ( 0.0000000000000000000, 0.0000000000000000000, -1.000000000000000000 ) ) ;
#226 = PRODUCT_DEFINITION ( 'UNKNOWN', '', #20, #80 ) ;
#227 = ORIENTED_EDGE ( 'NONE', *, *, #84, .T. ) ;
#228 = CALENDAR_DATE ( 2019, 10, 1 ) ;
#229 = ORIENTED_EDGE ( 'NONE', *, *, #135, .T. ) ;
#230 = AXIS2_PLACEMENT_3D ( 'NONE', #214, #109, #168 ) ;
#231 = APPROVAL_PERSON_ORGANIZATION ( #182, #102, #200 ) ;
#232 = VECTOR ( 'NONE', #18, 1000.000000000000000 ) ;
#233 = ORIENTED_EDGE ( 'NONE', *, *, #155, .F. ) ;
#234 = CARTESIAN_POINT ( 'NONE',  ( -4.750000000000000000, 0.0000000000000000000, -75.00000000000001400 ) ) ;
#235 = DIRECTION ( 'NONE',  ( 1.000000000000000000, 0.0000000000000000000, 0.0000000000000000000 ) ) ;
#236 = AXIS2_PLACEMENT_3D ( 'NONE', #121, #146, #187 ) ;
#237 = DIRECTION ( 'NONE',  ( 1.000000000000000000, -0.0000000000000000000, -0.0000000000000000000 ) ) ;
#238 = DIRECTION ( 'NONE',  ( 0.0000000000000000000, 0.0000000000000000000, -1.000000000000000000 ) ) ;
#239 = CC_DESIGN_DATE_AND_TIME_ASSIGNMENT ( #118, #11, ( #226 ) ) ;
#240 = DIRECTION ( 'NONE',  ( -1.000000000000000000, 0.0000000000000000000, 0.0000000000000000000 ) ) ;
#241 = CARTESIAN_POINT ( 'NONE',  ( -4.750000000000000000, 9.184850993605150300E-015, -75.00000000000001400 ) ) ;
#242 = CARTESIAN_POINT ( 'NONE',  ( 5.000000000000000000, 0.0000000000000000000, 75.00000000000001400 ) ) ;
#243 = LINE ( 'NONE', #138, #232 ) ;
#244 = VERTEX_POINT ( 'NONE', #171 ) ;
#245 = ORIENTED_EDGE ( 'NONE', *, *, #253, .T. ) ;
#246 = SECURITY_CLASSIFICATION_LEVEL ( 'unclassified' ) ;
#247 = AXIS2_PLACEMENT_3D ( 'NONE', #268, #194, #266 ) ;
#248 = APPLICATION_CONTEXT ( 'configuration controlled 3d designs of mechanical parts and assemblies' ) ;
#249 = ORIENTED_EDGE ( 'NONE', *, *, #135, .F. ) ;
#250 = AXIS2_PLACEMENT_3D ( 'NONE', #261, #51, #2 ) ;
#251 = ORIENTED_EDGE ( 'NONE', *, *, #181, .T. ) ;
#252 = VECTOR ( 'NONE', #50, 1000.000000000000000 ) ;
#253 = EDGE_CURVE ( 'NONE', #76, #178, #202, .T. ) ;
#254 = LOCAL_TIME ( 14, 39, 19.00000000000000000, #258 ) ;
#255 = CIRCLE ( 'NONE', #247, 75.00000000000001400 ) ;
#256 = ORIENTED_EDGE ( 'NONE', *, *, #84, .F. ) ;
#257 = DIRECTION ( 'NONE',  ( 0.0000000000000000000, 0.0000000000000000000, -1.000000000000000000 ) ) ;
#258 = COORDINATED_UNIVERSAL_TIME_OFFSET ( 5, 0, .BEHIND. ) ;
#259 = DIRECTION ( 'NONE',  ( 0.0000000000000000000, 0.0000000000000000000, -1.000000000000000000 ) ) ;
#260 = AXIS2_PLACEMENT_3D ( 'NONE', #13, #193, #225 ) ;
#261 = CARTESIAN_POINT ( 'NONE',  ( -5.000000000000000000, 0.0000000000000000000, 0.0000000000000000000 ) ) ;
#262 = DIRECTION ( 'NONE',  ( 0.0000000000000000000, 0.0000000000000000000, -1.000000000000000000 ) ) ;
#263 = LOCAL_TIME ( 14, 39, 19.00000000000000000, #158 ) ;
#264 = PERSON_AND_ORGANIZATION ( #219, #85 ) ;
#265 = LINE ( 'NONE', #242, #64 ) ;
#266 = DIRECTION ( 'NONE',  ( 0.0000000000000000000, 0.0000000000000000000, -1.000000000000000000 ) ) ;
#267 = ADVANCED_FACE ( 'NONE', ( #98 ), #10, .T. ) ;
#268 = CARTESIAN_POINT ( 'NONE',  ( 4.750000000000096800, 0.0000000000000000000, 0.0000000000000000000 ) ) ;
#269 = CIRCLE ( 'NONE', #250, 74.75000000000002800 ) ;
#270 = APPROVAL_DATE_TIME ( #103, #102 ) ;
#271 = ADVANCED_BREP_SHAPE_REPRESENTATION ( 'Web Model 11858_11861', ( #81, #177 ), #116 ) ;
#272 = EDGE_LOOP ( 'NONE', ( #256, #233, #4, #105 ) ) ;
#273 = DIRECTION ( 'NONE',  ( 0.7071067811865671100, 0.0000000000000000000, -0.7071067811865279200 ) ) ;
#274 = LOCAL_TIME ( 14, 39, 19.00000000000000000, #189 ) ;
#275 = CIRCLE ( 'NONE', #185, 74.75000000000009900 ) ;
ENDSEC;
END-ISO-10303-21;
