ISO-10303-21;
HEADER;
FILE_DESCRIPTION (( 'STEP AP203' ),
    '1' );
FILE_NAME ('Web Model 13798_13798.step',
    '2019-12-10T20:38:27',
    ( '' ),
    ( '' ),
    'SwSTEP 2.0',
    'SolidWorks 2018',
    '' );
FILE_SCHEMA (( 'CONFIG_CONTROL_DESIGN' ));
ENDSEC;

DATA;
#1 = CIRCLE ( 'NONE', #73, 25.00000000000000000 ) ;
#2 = AXIS2_PLACEMENT_3D ( 'NONE', #175, #140, #51 ) ;
#3 = FACE_OUTER_BOUND ( 'NONE', #59, .T. ) ;
#4 = APPROVAL ( #170, 'UNSPECIFIED' ) ;
#5 = DIRECTION ( 'NONE',  ( 1.000000000000000000, 0.0000000000000000000, 0.0000000000000000000 ) ) ;
#6 = CC_DESIGN_APPROVAL ( #112, ( #127 ) ) ;
#7 = ADVANCED_FACE ( 'NONE', ( #121 ), #24, .F. ) ;
#8 = DATE_TIME_ROLE ( 'creation_date' ) ;
#9 = DATE_AND_TIME ( #114, #120 ) ;
#10 = AXIS2_PLACEMENT_3D ( 'NONE', #162, #107, #5 ) ;
#11 = DESIGN_CONTEXT ( 'detailed design', #77, 'design' ) ;
#12 = VERTEX_POINT ( 'NONE', #134 ) ;
#13 = COORDINATED_UNIVERSAL_TIME_OFFSET ( 5, 0, .BEHIND. ) ;
#14 = DIRECTION ( 'NONE',  ( 1.000000000000000000, 0.0000000000000000000, 0.0000000000000000000 ) ) ;
#15 =( LENGTH_UNIT ( ) NAMED_UNIT ( * ) SI_UNIT ( .MILLI., .METRE. ) );
#16 = ORIENTED_EDGE ( 'NONE', *, *, #154, .T. ) ;
#17 = PRODUCT_DEFINITION ( 'UNKNOWN', '', #127, #11 ) ;
#18 = PERSON_AND_ORGANIZATION_ROLE ( 'creator' ) ;
#19 = CC_DESIGN_PERSON_AND_ORGANIZATION_ASSIGNMENT ( #20, #158, ( #41 ) ) ;
#20 = PERSON_AND_ORGANIZATION ( #144, #138 ) ;
#21 = ORIENTED_EDGE ( 'NONE', *, *, #115, .T. ) ;
#22 = DATE_AND_TIME ( #101, #168 ) ;
#23 = CC_DESIGN_PERSON_AND_ORGANIZATION_ASSIGNMENT ( #91, #145, ( #127 ) ) ;
#24 = PLANE ( 'NONE',  #28 ) ;
#25 = PLANE ( 'NONE',  #49 ) ;
#26 = DIRECTION ( 'NONE',  ( -1.000000000000000000, -0.0000000000000000000, -0.0000000000000000000 ) ) ;
#27 = UNCERTAINTY_MEASURE_WITH_UNIT (LENGTH_MEASURE( 1.000000000000000082E-05 ), #15, 'distance_accuracy_value', 'NONE');
#28 = AXIS2_PLACEMENT_3D ( 'NONE', #122, #14, #108 ) ;
#29 = CALENDAR_DATE ( 2019, 10, 12 ) ;
#30 = LOCAL_TIME ( 15, 38, 27.00000000000000000, #153 ) ;
#31 = APPLICATION_PROTOCOL_DEFINITION ( 'international standard', 'config_control_design', 1994, #125 ) ;
#32 = CC_DESIGN_SECURITY_CLASSIFICATION ( #156, ( #127 ) ) ;
#33 = ADVANCED_FACE ( 'NONE', ( #3 ), #53, .T. ) ;
#34 = APPROVAL ( #173, 'UNSPECIFIED' ) ;
#35 = CARTESIAN_POINT ( 'NONE',  ( 3.000000000000000000, 0.0000000000000000000, 0.0000000000000000000 ) ) ;
#36 = DIRECTION ( 'NONE',  ( 1.000000000000000000, 0.0000000000000000000, 0.0000000000000000000 ) ) ;
#37 = CYLINDRICAL_SURFACE ( 'NONE', #169, 25.00000000000000000 ) ;
#38 = DIRECTION ( 'NONE',  ( 0.0000000000000000000, 0.0000000000000000000, 1.000000000000000000 ) ) ;
#39 = CARTESIAN_POINT ( 'NONE',  ( 3.000000000000000000, 0.0000000000000000000, 25.00000000000000000 ) ) ;
#40 = AXIS2_PLACEMENT_3D ( 'NONE', #95, #99, #71 ) ;
#41 = PRODUCT ( 'Web Model 13798_13798', 'Web Model 13798_13798', '', ( #104 ) ) ;
#42 = SHAPE_DEFINITION_REPRESENTATION ( #85, #66 ) ;
#43 = ORIENTED_EDGE ( 'NONE', *, *, #115, .F. ) ;
#44 = COORDINATED_UNIVERSAL_TIME_OFFSET ( 5, 0, .BEHIND. ) ;
#45 = COORDINATED_UNIVERSAL_TIME_OFFSET ( 5, 0, .BEHIND. ) ;
#46 = APPROVAL_ROLE ( '' ) ;
#47 = DIRECTION ( 'NONE',  ( -1.000000000000000000, -0.0000000000000000000, -0.0000000000000000000 ) ) ;
#48 = EDGE_LOOP ( 'NONE', ( #16, #164 ) ) ;
#49 = AXIS2_PLACEMENT_3D ( 'NONE', #137, #36, #135 ) ;
#50 =( NAMED_UNIT ( * ) PLANE_ANGLE_UNIT ( ) SI_UNIT ( $, .RADIAN. ) );
#51 = DIRECTION ( 'NONE',  ( 0.0000000000000000000, 0.0000000000000000000, -1.000000000000000000 ) ) ;
#52 = CARTESIAN_POINT ( 'NONE',  ( 3.000000000000000000, 0.0000000000000000000, 0.0000000000000000000 ) ) ;
#53 = CYLINDRICAL_SURFACE ( 'NONE', #136, 25.00000000000000000 ) ;
#54 = CARTESIAN_POINT ( 'NONE',  ( 3.000000000000000000, 0.0000000000000000000, 25.00000000000000000 ) ) ;
#55 = CALENDAR_DATE ( 2019, 10, 12 ) ;
#56 = CC_DESIGN_APPROVAL ( #34, ( #17 ) ) ;
#57 = VERTEX_POINT ( 'NONE', #124 ) ;
#58 = PERSON_AND_ORGANIZATION ( #144, #138 ) ;
#59 = EDGE_LOOP ( 'NONE', ( #90, #76, #21, #139 ) ) ;
#60 = APPROVAL_DATE_TIME ( #128, #4 ) ;
#61 = EDGE_CURVE ( 'NONE', #93, #12, #163, .T. ) ;
#62 = CIRCLE ( 'NONE', #89, 25.00000000000000000 ) ;
#63 = PERSON_AND_ORGANIZATION_ROLE ( 'creator' ) ;
#64 = PERSON_AND_ORGANIZATION ( #144, #138 ) ;
#65 = ADVANCED_FACE ( 'NONE', ( #126 ), #37, .T. ) ;
#66 = ADVANCED_BREP_SHAPE_REPRESENTATION ( 'Web Model 13798_13798', ( #79, #10 ), #132 ) ;
#67 = CIRCLE ( 'NONE', #2, 25.00000000000000000 ) ;
#68 = DIRECTION ( 'NONE',  ( -1.000000000000000000, -0.0000000000000000000, -0.0000000000000000000 ) ) ;
#69 = CARTESIAN_POINT ( 'NONE',  ( 3.000000000000000000, 0.0000000000000000000, 0.0000000000000000000 ) ) ;
#70 = ORIENTED_EDGE ( 'NONE', *, *, #149, .F. ) ;
#71 = DIRECTION ( 'NONE',  ( 0.0000000000000000000, 0.0000000000000000000, -1.000000000000000000 ) ) ;
#72 = VECTOR ( 'NONE', #68, 1000.000000000000000 ) ;
#73 = AXIS2_PLACEMENT_3D ( 'NONE', #52, #151, #82 ) ;
#74 = APPROVAL_PERSON_ORGANIZATION ( #64, #34, #174 ) ;
#75 = PERSON_AND_ORGANIZATION_ROLE ( 'classification_officer' ) ;
#76 = ORIENTED_EDGE ( 'NONE', *, *, #149, .T. ) ;
#77 = APPLICATION_CONTEXT ( 'configuration controlled 3d designs of mechanical parts and assemblies' ) ;
#78 = EDGE_CURVE ( 'NONE', #117, #93, #67, .T. ) ;
#79 = MANIFOLD_SOLID_BREP ( '001', #80 ) ;
#80 = CLOSED_SHELL ( 'NONE', ( #33, #65, #119, #7 ) ) ;
#81 = CC_DESIGN_PERSON_AND_ORGANIZATION_ASSIGNMENT ( #87, #75, ( #156 ) ) ;
#82 = DIRECTION ( 'NONE',  ( 0.0000000000000000000, 0.0000000000000000000, -1.000000000000000000 ) ) ;
#83 =( NAMED_UNIT ( * ) SI_UNIT ( $, .STERADIAN. ) SOLID_ANGLE_UNIT ( ) );
#84 = CARTESIAN_POINT ( 'NONE',  ( 3.000000000000000000, 3.061616997868383043E-15, -25.00000000000000000 ) ) ;
#85 = PRODUCT_DEFINITION_SHAPE ( 'NONE', 'NONE',  #17 ) ;
#86 = CC_DESIGN_APPROVAL ( #4, ( #156 ) ) ;
#87 = PERSON_AND_ORGANIZATION ( #144, #138 ) ;
#88 = PERSON_AND_ORGANIZATION ( #144, #138 ) ;
#89 = AXIS2_PLACEMENT_3D ( 'NONE', #152, #123, #94 ) ;
#90 = ORIENTED_EDGE ( 'NONE', *, *, #78, .F. ) ;
#91 = PERSON_AND_ORGANIZATION ( #144, #138 ) ;
#92 = CC_DESIGN_PERSON_AND_ORGANIZATION_ASSIGNMENT ( #129, #18, ( #17 ) ) ;
#93 = VERTEX_POINT ( 'NONE', #54 ) ;
#94 = DIRECTION ( 'NONE',  ( 0.0000000000000000000, 0.0000000000000000000, -1.000000000000000000 ) ) ;
#95 = CARTESIAN_POINT ( 'NONE',  ( 0.0000000000000000000, 0.0000000000000000000, 0.0000000000000000000 ) ) ;
#96 = CIRCLE ( 'NONE', #40, 25.00000000000000000 ) ;
#97 = EDGE_CURVE ( 'NONE', #12, #57, #62, .T. ) ;
#98 = LOCAL_TIME ( 15, 38, 27.00000000000000000, #116 ) ;
#99 = DIRECTION ( 'NONE',  ( 1.000000000000000000, 0.0000000000000000000, 0.0000000000000000000 ) ) ;
#100 = ORIENTED_EDGE ( 'NONE', *, *, #97, .F. ) ;
#101 = CALENDAR_DATE ( 2019, 10, 12 ) ;
#102 = APPROVAL_PERSON_ORGANIZATION ( #167, #4, #146 ) ;
#103 = APPROVAL_STATUS ( 'not_yet_approved' ) ;
#104 = MECHANICAL_CONTEXT ( 'NONE', #125, 'mechanical' ) ;
#105 = FACE_OUTER_BOUND ( 'NONE', #48, .T. ) ;
#106 = APPROVAL_DATE_TIME ( #111, #112 ) ;
#107 = DIRECTION ( 'NONE',  ( 0.0000000000000000000, 0.0000000000000000000, 1.000000000000000000 ) ) ;
#108 = DIRECTION ( 'NONE',  ( 0.0000000000000000000, 0.0000000000000000000, -1.000000000000000000 ) ) ;
#109 = DIRECTION ( 'NONE',  ( -1.000000000000000000, -0.0000000000000000000, -0.0000000000000000000 ) ) ;
#110 = CARTESIAN_POINT ( 'NONE',  ( 3.000000000000000000, 3.061616997868383043E-15, -25.00000000000000000 ) ) ;
#111 = DATE_AND_TIME ( #157, #98 ) ;
#112 = APPROVAL ( #103, 'UNSPECIFIED' ) ;
#113 = ORIENTED_EDGE ( 'NONE', *, *, #61, .T. ) ;
#114 = CALENDAR_DATE ( 2019, 10, 12 ) ;
#115 = EDGE_CURVE ( 'NONE', #57, #12, #96, .T. ) ;
#116 = COORDINATED_UNIVERSAL_TIME_OFFSET ( 5, 0, .BEHIND. ) ;
#117 = VERTEX_POINT ( 'NONE', #110 ) ;
#118 = DATE_TIME_ROLE ( 'classification_date' ) ;
#119 = ADVANCED_FACE ( 'NONE', ( #105 ), #25, .T. ) ;
#120 = LOCAL_TIME ( 15, 38, 27.00000000000000000, #13 ) ;
#121 = FACE_OUTER_BOUND ( 'NONE', #172, .T. ) ;
#122 = CARTESIAN_POINT ( 'NONE',  ( 0.0000000000000000000, 0.0000000000000000000, 0.0000000000000000000 ) ) ;
#123 = DIRECTION ( 'NONE',  ( 1.000000000000000000, 0.0000000000000000000, 0.0000000000000000000 ) ) ;
#124 = CARTESIAN_POINT ( 'NONE',  ( 0.0000000000000000000, 3.061616997868383043E-15, -25.00000000000000000 ) ) ;
#125 = APPLICATION_CONTEXT ( 'configuration controlled 3d designs of mechanical parts and assemblies' ) ;
#126 = FACE_OUTER_BOUND ( 'NONE', #133, .T. ) ;
#127 = PRODUCT_DEFINITION_FORMATION_WITH_SPECIFIED_SOURCE ( 'ANY', '', #41, .NOT_KNOWN. ) ;
#128 = DATE_AND_TIME ( #29, #30 ) ;
#129 = PERSON_AND_ORGANIZATION ( #144, #138 ) ;
#130 = APPLICATION_PROTOCOL_DEFINITION ( 'international standard', 'config_control_design', 1994, #77 ) ;
#131 = ORIENTED_EDGE ( 'NONE', *, *, #97, .T. ) ;
#132 =( GEOMETRIC_REPRESENTATION_CONTEXT ( 3 ) GLOBAL_UNCERTAINTY_ASSIGNED_CONTEXT ( ( #27 ) ) GLOBAL_UNIT_ASSIGNED_CONTEXT ( ( #15, #50, #83 ) ) REPRESENTATION_CONTEXT ( 'NONE', 'WORKASPACE' ) );
#133 = EDGE_LOOP ( 'NONE', ( #70, #150, #113, #131 ) ) ;
#134 = CARTESIAN_POINT ( 'NONE',  ( 0.0000000000000000000, 0.0000000000000000000, 25.00000000000000000 ) ) ;
#135 = DIRECTION ( 'NONE',  ( 0.0000000000000000000, 0.0000000000000000000, -1.000000000000000000 ) ) ;
#136 = AXIS2_PLACEMENT_3D ( 'NONE', #35, #26, #38 ) ;
#137 = CARTESIAN_POINT ( 'NONE',  ( 3.000000000000000000, 0.0000000000000000000, 0.0000000000000000000 ) ) ;
#138 = ORGANIZATION ( 'UNSPECIFIED', 'UNSPECIFIED', '' ) ;
#139 = ORIENTED_EDGE ( 'NONE', *, *, #61, .F. ) ;
#140 = DIRECTION ( 'NONE',  ( 1.000000000000000000, 0.0000000000000000000, 0.0000000000000000000 ) ) ;
#141 = CC_DESIGN_PERSON_AND_ORGANIZATION_ASSIGNMENT ( #58, #63, ( #127 ) ) ;
#142 = VECTOR ( 'NONE', #47, 1000.000000000000000 ) ;
#143 = LINE ( 'NONE', #84, #72 ) ;
#144 = PERSON ( 'UNSPECIFIED', 'UNSPECIFIED', 'UNSPECIFIED', ('UNSPECIFIED'), ('UNSPECIFIED'), ('UNSPECIFIED') ) ;
#145 = PERSON_AND_ORGANIZATION_ROLE ( 'design_supplier' ) ;
#146 = APPROVAL_ROLE ( '' ) ;
#147 = CC_DESIGN_DATE_AND_TIME_ASSIGNMENT ( #9, #8, ( #17 ) ) ;
#148 = APPROVAL_PERSON_ORGANIZATION ( #88, #112, #46 ) ;
#149 = EDGE_CURVE ( 'NONE', #117, #57, #143, .T. ) ;
#150 = ORIENTED_EDGE ( 'NONE', *, *, #154, .F. ) ;
#151 = DIRECTION ( 'NONE',  ( 1.000000000000000000, 0.0000000000000000000, 0.0000000000000000000 ) ) ;
#152 = CARTESIAN_POINT ( 'NONE',  ( 0.0000000000000000000, 0.0000000000000000000, 0.0000000000000000000 ) ) ;
#153 = COORDINATED_UNIVERSAL_TIME_OFFSET ( 5, 0, .BEHIND. ) ;
#154 = EDGE_CURVE ( 'NONE', #93, #117, #1, .T. ) ;
#155 = LOCAL_TIME ( 15, 38, 27.00000000000000000, #44 ) ;
#156 = SECURITY_CLASSIFICATION ( '', '', #159 ) ;
#157 = CALENDAR_DATE ( 2019, 10, 12 ) ;
#158 = PERSON_AND_ORGANIZATION_ROLE ( 'design_owner' ) ;
#159 = SECURITY_CLASSIFICATION_LEVEL ( 'unclassified' ) ;
#160 = DATE_AND_TIME ( #55, #155 ) ;
#161 = DIRECTION ( 'NONE',  ( 0.0000000000000000000, 0.0000000000000000000, 1.000000000000000000 ) ) ;
#162 = CARTESIAN_POINT ( 'NONE',  ( 0.0000000000000000000, 0.0000000000000000000, 0.0000000000000000000 ) ) ;
#163 = LINE ( 'NONE', #39, #142 ) ;
#164 = ORIENTED_EDGE ( 'NONE', *, *, #78, .T. ) ;
#165 = PRODUCT_RELATED_PRODUCT_CATEGORY ( 'detail', '', ( #41 ) ) ;
#166 = APPROVAL_DATE_TIME ( #22, #34 ) ;
#167 = PERSON_AND_ORGANIZATION ( #144, #138 ) ;
#168 = LOCAL_TIME ( 15, 38, 27.00000000000000000, #45 ) ;
#169 = AXIS2_PLACEMENT_3D ( 'NONE', #69, #109, #161 ) ;
#170 = APPROVAL_STATUS ( 'not_yet_approved' ) ;
#171 = CC_DESIGN_DATE_AND_TIME_ASSIGNMENT ( #160, #118, ( #156 ) ) ;
#172 = EDGE_LOOP ( 'NONE', ( #100, #43 ) ) ;
#173 = APPROVAL_STATUS ( 'not_yet_approved' ) ;
#174 = APPROVAL_ROLE ( '' ) ;
#175 = CARTESIAN_POINT ( 'NONE',  ( 3.000000000000000000, 0.0000000000000000000, 0.0000000000000000000 ) ) ;
ENDSEC;
END-ISO-10303-21;
