ISO-10303-21;
HEADER;
FILE_DESCRIPTION (( 'STEP AP203' ),
    '1' );
FILE_NAME ('Web Model 45183_48538.step',
    '2017-04-10T16:59:16',
    ( '' ),
    ( '' ),
    'SwSTEP 2.0',
    'SolidWorks 2016',
    '' );
FILE_SCHEMA (( 'CONFIG_CONTROL_DESIGN' ));
ENDSEC;

DATA;
#1 = APPROVAL_PERSON_ORGANIZATION ( #203, #154, #208 ) ;
#2 = FACE_OUTER_BOUND ( 'NONE', #40, .T. ) ;
#3 = PRODUCT_DEFINITION_FORMATION_WITH_SPECIFIED_SOURCE ( 'ANY', '', #85, .NOT_KNOWN. ) ;
#4 = AXIS2_PLACEMENT_3D ( 'NONE', #11, #87, #187 ) ;
#5 = ORIENTED_EDGE ( 'NONE', *, *, #75, .F. ) ;
#6 = DIRECTION ( 'NONE',  ( -1.000000000000000000, 0.0000000000000000000, -0.0000000000000000000 ) ) ;
#7 = APPROVAL ( #214, 'UNSPECIFIED' ) ;
#8 = CARTESIAN_POINT ( 'NONE',  ( 12.50000000000000000, -12.50000000000000000, -1.000000000000000000 ) ) ;
#9 = ORIENTED_EDGE ( 'NONE', *, *, #64, .T. ) ;
#10 = PLANE ( 'NONE',  #4 ) ;
#11 = CARTESIAN_POINT ( 'NONE',  ( -12.50000000000000000, -12.50000000000000000, 1.000000000000000000 ) ) ;
#12 = LINE ( 'NONE', #8, #221 ) ;
#13 = DIRECTION ( 'NONE',  ( 1.000000000000000000, 0.0000000000000000000, 0.0000000000000000000 ) ) ;
#14 = DIRECTION ( 'NONE',  ( -1.000000000000000000, -0.0000000000000000000, -0.0000000000000000000 ) ) ;
#15 = CC_DESIGN_APPROVAL ( #7, ( #3 ) ) ;
#16 = ADVANCED_BREP_SHAPE_REPRESENTATION ( 'Web Model 45183_48538', ( #49, #114 ), #44 ) ;
#17 = EDGE_LOOP ( 'NONE', ( #127, #181, #218, #5 ) ) ;
#18 = PLANE ( 'NONE',  #224 ) ;
#19 = VECTOR ( 'NONE', #201, 1000.000000000000000 ) ;
#20 = EDGE_CURVE ( 'NONE', #54, #102, #205, .T. ) ;
#21 = LINE ( 'NONE', #120, #19 ) ;
#22 = LINE ( 'NONE', #73, #156 ) ;
#23 = DIRECTION ( 'NONE',  ( -0.0000000000000000000, -0.0000000000000000000, -1.000000000000000000 ) ) ;
#24 = ORIENTED_EDGE ( 'NONE', *, *, #133, .T. ) ;
#25 = PERSON_AND_ORGANIZATION_ROLE ( 'classification_officer' ) ;
#26 = DIRECTION ( 'NONE',  ( 1.000000000000000000, 0.0000000000000000000, 0.0000000000000000000 ) ) ;
#27 = PERSON_AND_ORGANIZATION ( #65, #195 ) ;
#28 = VERTEX_POINT ( 'NONE', #190 ) ;
#29 = DIRECTION ( 'NONE',  ( 0.0000000000000000000, 1.000000000000000000, 0.0000000000000000000 ) ) ;
#30 = AXIS2_PLACEMENT_3D ( 'NONE', #147, #97, #6 ) ;
#31 = LINE ( 'NONE', #183, #230 ) ;
#32 = PLANE ( 'NONE',  #204 ) ;
#33 = CC_DESIGN_PERSON_AND_ORGANIZATION_ASSIGNMENT ( #27, #89, ( #3 ) ) ;
#34 = LOCAL_TIME ( 12, 59, 16.00000000000000000, #166 ) ;
#35 = EDGE_CURVE ( 'NONE', #54, #141, #223, .T. ) ;
#36 = DIRECTION ( 'NONE',  ( 0.0000000000000000000, 1.000000000000000000, 0.0000000000000000000 ) ) ;
#37 = EDGE_CURVE ( 'NONE', #141, #152, #21, .T. ) ;
#38 = CALENDAR_DATE ( 2017, 10, 4 ) ;
#39 = CARTESIAN_POINT ( 'NONE',  ( -12.50000000000000000, -12.50000000000000000, -1.000000000000000000 ) ) ;
#40 = EDGE_LOOP ( 'NONE', ( #9, #24, #207, #199 ) ) ;
#41 = LINE ( 'NONE', #59, #231 ) ;
#42 = DATE_AND_TIME ( #38, #34 ) ;
#43 = APPROVAL_DATE_TIME ( #42, #154 ) ;
#44 =( GEOMETRIC_REPRESENTATION_CONTEXT ( 3 ) GLOBAL_UNCERTAINTY_ASSIGNED_CONTEXT ( ( #182 ) ) GLOBAL_UNIT_ASSIGNED_CONTEXT ( ( #220, #153, #155 ) ) REPRESENTATION_CONTEXT ( 'NONE', 'WORKASPACE' ) );
#45 = ORIENTED_EDGE ( 'NONE', *, *, #37, .F. ) ;
#46 = ORIENTED_EDGE ( 'NONE', *, *, #20, .F. ) ;
#47 = PERSON_AND_ORGANIZATION ( #65, #195 ) ;
#48 = CC_DESIGN_PERSON_AND_ORGANIZATION_ASSIGNMENT ( #112, #198, ( #3 ) ) ;
#49 = MANIFOLD_SOLID_BREP ( 'Extrude1', #192 ) ;
#50 = EDGE_CURVE ( 'NONE', #152, #28, #41, .T. ) ;
#51 = PERSON_AND_ORGANIZATION_ROLE ( 'design_owner' ) ;
#52 = COORDINATED_UNIVERSAL_TIME_OFFSET ( 5, 0, .BEHIND. ) ;
#53 = DIRECTION ( 'NONE',  ( 0.0000000000000000000, 0.0000000000000000000, -1.000000000000000000 ) ) ;
#54 = VERTEX_POINT ( 'NONE', #137 ) ;
#55 = MECHANICAL_CONTEXT ( 'NONE', #71, 'mechanical' ) ;
#56 = PRODUCT_DEFINITION_SHAPE ( 'NONE', 'NONE',  #139 ) ;
#57 = ADVANCED_FACE ( 'NONE', ( #2 ), #69, .F. ) ;
#58 = AXIS2_PLACEMENT_3D ( 'NONE', #185, #209, #164 ) ;
#59 = CARTESIAN_POINT ( 'NONE',  ( -12.50000000000000000, 12.50000000000000000, 1.000000000000000000 ) ) ;
#60 = CARTESIAN_POINT ( 'NONE',  ( -12.50000000000000000, -12.50000000000000000, 1.000000000000000000 ) ) ;
#61 = SECURITY_CLASSIFICATION ( '', '', #160 ) ;
#62 = PERSON_AND_ORGANIZATION ( #65, #195 ) ;
#63 = ORIENTED_EDGE ( 'NONE', *, *, #133, .F. ) ;
#64 = EDGE_CURVE ( 'NONE', #152, #88, #123, .T. ) ;
#65 = PERSON ( 'UNSPECIFIED', 'UNSPECIFIED', 'UNSPECIFIED', ('UNSPECIFIED'), ('UNSPECIFIED'), ('UNSPECIFIED') ) ;
#66 = LOCAL_TIME ( 12, 59, 16.00000000000000000, #52 ) ;
#67 = DIRECTION ( 'NONE',  ( -1.000000000000000000, 0.0000000000000000000, 0.0000000000000000000 ) ) ;
#68 = DIRECTION ( 'NONE',  ( -0.0000000000000000000, -1.000000000000000000, -0.0000000000000000000 ) ) ;
#69 = PLANE ( 'NONE',  #177 ) ;
#70 = ORIENTED_EDGE ( 'NONE', *, *, #144, .T. ) ;
#71 = APPLICATION_CONTEXT ( 'configuration controlled 3d designs of mechanical parts and assemblies' ) ;
#72 = DIRECTION ( 'NONE',  ( -0.0000000000000000000, -0.0000000000000000000, -1.000000000000000000 ) ) ;
#73 = CARTESIAN_POINT ( 'NONE',  ( -12.50000000000000000, -12.50000000000000000, -1.000000000000000000 ) ) ;
#74 = LINE ( 'NONE', #110, #180 ) ;
#75 = EDGE_CURVE ( 'NONE', #82, #102, #172, .T. ) ;
#76 = ORIENTED_EDGE ( 'NONE', *, *, #104, .F. ) ;
#77 = CC_DESIGN_PERSON_AND_ORGANIZATION_ASSIGNMENT ( #151, #25, ( #61 ) ) ;
#78 = CALENDAR_DATE ( 2017, 10, 4 ) ;
#79 = EDGE_CURVE ( 'NONE', #196, #28, #100, .T. ) ;
#80 = ADVANCED_FACE ( 'NONE', ( #129 ), #32, .F. ) ;
#81 = COORDINATED_UNIVERSAL_TIME_OFFSET ( 5, 0, .BEHIND. ) ;
#82 = VERTEX_POINT ( 'NONE', #39 ) ;
#83 = DATE_TIME_ROLE ( 'classification_date' ) ;
#84 = CARTESIAN_POINT ( 'NONE',  ( -12.50000000000000000, 12.50000000000000000, 1.000000000000000000 ) ) ;
#85 = PRODUCT ( 'Web Model 45183_48538', 'Web Model 45183_48538', '', ( #55 ) ) ;
#86 = DATE_AND_TIME ( #78, #66 ) ;
#87 = DIRECTION ( 'NONE',  ( 0.0000000000000000000, 1.000000000000000000, 0.0000000000000000000 ) ) ;
#88 = VERTEX_POINT ( 'NONE', #235 ) ;
#89 = PERSON_AND_ORGANIZATION_ROLE ( 'creator' ) ;
#90 = SHAPE_DEFINITION_REPRESENTATION ( #56, #16 ) ;
#91 = CARTESIAN_POINT ( 'NONE',  ( 12.50000000000000000, 12.50000000000000000, 1.000000000000000000 ) ) ;
#92 = ORIENTED_EDGE ( 'NONE', *, *, #119, .T. ) ;
#93 = CC_DESIGN_DATE_AND_TIME_ASSIGNMENT ( #126, #83, ( #61 ) ) ;
#94 = LOCAL_TIME ( 12, 59, 16.00000000000000000, #81 ) ;
#95 = CARTESIAN_POINT ( 'NONE',  ( -12.50000000000000000, 12.50000000000000000, 1.000000000000000000 ) ) ;
#96 = EDGE_CURVE ( 'NONE', #28, #82, #22, .T. ) ;
#97 = DIRECTION ( 'NONE',  ( 0.0000000000000000000, 0.0000000000000000000, -1.000000000000000000 ) ) ;
#98 = EDGE_LOOP ( 'NONE', ( #215, #46, #63, #179 ) ) ;
#99 = CALENDAR_DATE ( 2017, 10, 4 ) ;
#100 = LINE ( 'NONE', #132, #122 ) ;
#101 = DATE_AND_TIME ( #99, #94 ) ;
#102 = VERTEX_POINT ( 'NONE', #217 ) ;
#103 = APPROVAL ( #115, 'UNSPECIFIED' ) ;
#104 = EDGE_CURVE ( 'NONE', #88, #82, #31, .T. ) ;
#105 = APPROVAL_DATE_TIME ( #101, #7 ) ;
#106 = EDGE_LOOP ( 'NONE', ( #227, #135, #45, #70 ) ) ;
#107 = COORDINATED_UNIVERSAL_TIME_OFFSET ( 5, 0, .BEHIND. ) ;
#108 = LOCAL_TIME ( 12, 59, 16.00000000000000000, #107 ) ;
#109 = APPLICATION_PROTOCOL_DEFINITION ( 'international standard', 'config_control_design', 1994, #229 ) ;
#110 = CARTESIAN_POINT ( 'NONE',  ( 12.50000000000000000, 12.50000000000000000, 1.000000000000000000 ) ) ;
#111 = CARTESIAN_POINT ( 'NONE',  ( -12.50000000000000000, -12.50000000000000000, 1.000000000000000000 ) ) ;
#112 = PERSON_AND_ORGANIZATION ( #65, #195 ) ;
#113 = ORIENTED_EDGE ( 'NONE', *, *, #35, .F. ) ;
#114 = AXIS2_PLACEMENT_3D ( 'NONE', #150, #149, #236 ) ;
#115 = APPROVAL_STATUS ( 'not_yet_approved' ) ;
#116 = CALENDAR_DATE ( 2017, 10, 4 ) ;
#117 = PERSON_AND_ORGANIZATION ( #65, #195 ) ;
#118 = CC_DESIGN_APPROVAL ( #103, ( #61 ) ) ;
#119 = EDGE_CURVE ( 'NONE', #102, #196, #12, .T. ) ;
#120 = CARTESIAN_POINT ( 'NONE',  ( -12.50000000000000000, 12.50000000000000000, 1.000000000000000000 ) ) ;
#121 = ORIENTED_EDGE ( 'NONE', *, *, #50, .T. ) ;
#122 = VECTOR ( 'NONE', #14, 1000.000000000000000 ) ;
#123 = LINE ( 'NONE', #60, #233 ) ;
#124 = CC_DESIGN_PERSON_AND_ORGANIZATION_ASSIGNMENT ( #117, #51, ( #85 ) ) ;
#125 = APPROVAL_STATUS ( 'not_yet_approved' ) ;
#126 = DATE_AND_TIME ( #116, #108 ) ;
#127 = ORIENTED_EDGE ( 'NONE', *, *, #96, .F. ) ;
#128 = CC_DESIGN_SECURITY_CLASSIFICATION ( #61, ( #3 ) ) ;
#129 = FACE_OUTER_BOUND ( 'NONE', #148, .T. ) ;
#130 = ORIENTED_EDGE ( 'NONE', *, *, #144, .F. ) ;
#131 = PERSON_AND_ORGANIZATION ( #65, #195 ) ;
#132 = CARTESIAN_POINT ( 'NONE',  ( -12.50000000000000000, 12.50000000000000000, -1.000000000000000000 ) ) ;
#133 = EDGE_CURVE ( 'NONE', #88, #54, #194, .T. ) ;
#134 = APPROVAL_PERSON_ORGANIZATION ( #131, #103, #178 ) ;
#135 = ORIENTED_EDGE ( 'NONE', *, *, #50, .F. ) ;
#136 = COORDINATED_UNIVERSAL_TIME_OFFSET ( 5, 0, .BEHIND. ) ;
#137 = CARTESIAN_POINT ( 'NONE',  ( 12.50000000000000000, -12.50000000000000000, 1.000000000000000000 ) ) ;
#138 = ADVANCED_FACE ( 'NONE', ( #189 ), #18, .F. ) ;
#139 = PRODUCT_DEFINITION ( 'UNKNOWN', '', #3, #193 ) ;
#140 = CARTESIAN_POINT ( 'NONE',  ( 12.50000000000000000, -12.50000000000000000, 1.000000000000000000 ) ) ;
#141 = VERTEX_POINT ( 'NONE', #91 ) ;
#142 = PRODUCT_RELATED_PRODUCT_CATEGORY ( 'detail', '', ( #85 ) ) ;
#143 = DIRECTION ( 'NONE',  ( -0.0000000000000000000, -0.0000000000000000000, -1.000000000000000000 ) ) ;
#144 = EDGE_CURVE ( 'NONE', #141, #196, #74, .T. ) ;
#145 = APPROVAL_DATE_TIME ( #162, #103 ) ;
#146 = DIRECTION ( 'NONE',  ( -0.0000000000000000000, -0.0000000000000000000, -1.000000000000000000 ) ) ;
#147 = CARTESIAN_POINT ( 'NONE',  ( -12.50000000000000000, 12.50000000000000000, -1.000000000000000000 ) ) ;
#148 = EDGE_LOOP ( 'NONE', ( #232, #76, #174, #121 ) ) ;
#149 = DIRECTION ( 'NONE',  ( 0.0000000000000000000, 0.0000000000000000000, 1.000000000000000000 ) ) ;
#150 = CARTESIAN_POINT ( 'NONE',  ( 0.0000000000000000000, 0.0000000000000000000, 0.0000000000000000000 ) ) ;
#151 = PERSON_AND_ORGANIZATION ( #65, #195 ) ;
#152 = VERTEX_POINT ( 'NONE', #84 ) ;
#153 =( NAMED_UNIT ( * ) PLANE_ANGLE_UNIT ( ) SI_UNIT ( $, .RADIAN. ) );
#154 = APPROVAL ( #125, 'UNSPECIFIED' ) ;
#155 =( NAMED_UNIT ( * ) SI_UNIT ( $, .STERADIAN. ) SOLID_ANGLE_UNIT ( ) );
#156 = VECTOR ( 'NONE', #68, 1000.000000000000000 ) ;
#157 = ADVANCED_FACE ( 'NONE', ( #211 ), #10, .F. ) ;
#158 = DIRECTION ( 'NONE',  ( 0.0000000000000000000, 0.0000000000000000000, 1.000000000000000000 ) ) ;
#159 = CC_DESIGN_APPROVAL ( #154, ( #139 ) ) ;
#160 = SECURITY_CLASSIFICATION_LEVEL ( 'unclassified' ) ;
#161 = FACE_OUTER_BOUND ( 'NONE', #106, .T. ) ;
#162 = DATE_AND_TIME ( #173, #219 ) ;
#163 = CARTESIAN_POINT ( 'NONE',  ( -12.50000000000000000, -12.50000000000000000, -1.000000000000000000 ) ) ;
#164 = DIRECTION ( 'NONE',  ( 0.0000000000000000000, -0.0000000000000000000, -1.000000000000000000 ) ) ;
#165 = APPLICATION_PROTOCOL_DEFINITION ( 'international standard', 'config_control_design', 1994, #71 ) ;
#166 = COORDINATED_UNIVERSAL_TIME_OFFSET ( 5, 0, .BEHIND. ) ;
#167 = ORIENTED_EDGE ( 'NONE', *, *, #20, .T. ) ;
#168 = CARTESIAN_POINT ( 'NONE',  ( 12.50000000000000000, 12.50000000000000000, -1.000000000000000000 ) ) ;
#169 = FACE_OUTER_BOUND ( 'NONE', #17, .T. ) ;
#170 = VECTOR ( 'NONE', #36, 1000.000000000000000 ) ;
#171 = CARTESIAN_POINT ( 'NONE',  ( 12.50000000000000000, -12.50000000000000000, 1.000000000000000000 ) ) ;
#172 = LINE ( 'NONE', #163, #228 ) ;
#173 = CALENDAR_DATE ( 2017, 10, 4 ) ;
#174 = ORIENTED_EDGE ( 'NONE', *, *, #64, .F. ) ;
#175 = APPROVAL_PERSON_ORGANIZATION ( #62, #7, #222 ) ;
#176 = PLANE ( 'NONE',  #58 ) ;
#177 = AXIS2_PLACEMENT_3D ( 'NONE', #95, #202, #213 ) ;
#178 = APPROVAL_ROLE ( '' ) ;
#179 = ORIENTED_EDGE ( 'NONE', *, *, #104, .T. ) ;
#180 = VECTOR ( 'NONE', #143, 1000.000000000000000 ) ;
#181 = ORIENTED_EDGE ( 'NONE', *, *, #79, .F. ) ;
#182 = UNCERTAINTY_MEASURE_WITH_UNIT (LENGTH_MEASURE( 1.000000000000000100E-005 ), #220, 'distance_accuracy_value', 'NONE');
#183 = CARTESIAN_POINT ( 'NONE',  ( -12.50000000000000000, -12.50000000000000000, 1.000000000000000000 ) ) ;
#184 = DIRECTION ( 'NONE',  ( -0.0000000000000000000, -1.000000000000000000, -0.0000000000000000000 ) ) ;
#185 = CARTESIAN_POINT ( 'NONE',  ( -12.50000000000000000, 12.50000000000000000, 1.000000000000000000 ) ) ;
#186 = DIRECTION ( 'NONE',  ( 1.000000000000000000, 0.0000000000000000000, 0.0000000000000000000 ) ) ;
#187 = DIRECTION ( 'NONE',  ( 0.0000000000000000000, -0.0000000000000000000, 1.000000000000000000 ) ) ;
#188 = VECTOR ( 'NONE', #23, 1000.000000000000000 ) ;
#189 = FACE_OUTER_BOUND ( 'NONE', #237, .T. ) ;
#190 = CARTESIAN_POINT ( 'NONE',  ( -12.50000000000000000, 12.50000000000000000, -1.000000000000000000 ) ) ;
#191 = VECTOR ( 'NONE', #26, 1000.000000000000000 ) ;
#192 = CLOSED_SHELL ( 'NONE', ( #80, #157, #138, #225, #57, #206 ) ) ;
#193 = DESIGN_CONTEXT ( 'detailed design', #229, 'design' ) ;
#194 = LINE ( 'NONE', #234, #191 ) ;
#195 = ORGANIZATION ( 'UNSPECIFIED', 'UNSPECIFIED', '' ) ;
#196 = VERTEX_POINT ( 'NONE', #168 ) ;
#197 = PLANE ( 'NONE',  #30 ) ;
#198 = PERSON_AND_ORGANIZATION_ROLE ( 'design_supplier' ) ;
#199 = ORIENTED_EDGE ( 'NONE', *, *, #37, .T. ) ;
#200 = CARTESIAN_POINT ( 'NONE',  ( 12.50000000000000000, -12.50000000000000000, 1.000000000000000000 ) ) ;
#201 = DIRECTION ( 'NONE',  ( -1.000000000000000000, -0.0000000000000000000, -0.0000000000000000000 ) ) ;
#202 = DIRECTION ( 'NONE',  ( 0.0000000000000000000, 0.0000000000000000000, -1.000000000000000000 ) ) ;
#203 = PERSON_AND_ORGANIZATION ( #65, #195 ) ;
#204 = AXIS2_PLACEMENT_3D ( 'NONE', #111, #186, #53 ) ;
#205 = LINE ( 'NONE', #171, #188 ) ;
#206 = ADVANCED_FACE ( 'NONE', ( #169 ), #197, .T. ) ;
#207 = ORIENTED_EDGE ( 'NONE', *, *, #35, .T. ) ;
#208 = APPROVAL_ROLE ( '' ) ;
#209 = DIRECTION ( 'NONE',  ( 0.0000000000000000000, -1.000000000000000000, 0.0000000000000000000 ) ) ;
#210 = PERSON_AND_ORGANIZATION_ROLE ( 'creator' ) ;
#211 = FACE_OUTER_BOUND ( 'NONE', #98, .T. ) ;
#212 = DATE_TIME_ROLE ( 'creation_date' ) ;
#213 = DIRECTION ( 'NONE',  ( -1.000000000000000000, 0.0000000000000000000, -0.0000000000000000000 ) ) ;
#214 = APPROVAL_STATUS ( 'not_yet_approved' ) ;
#215 = ORIENTED_EDGE ( 'NONE', *, *, #75, .T. ) ;
#216 = CC_DESIGN_PERSON_AND_ORGANIZATION_ASSIGNMENT ( #47, #210, ( #139 ) ) ;
#217 = CARTESIAN_POINT ( 'NONE',  ( 12.50000000000000000, -12.50000000000000000, -1.000000000000000000 ) ) ;
#218 = ORIENTED_EDGE ( 'NONE', *, *, #119, .F. ) ;
#219 = LOCAL_TIME ( 12, 59, 16.00000000000000000, #136 ) ;
#220 =( LENGTH_UNIT ( ) NAMED_UNIT ( * ) SI_UNIT ( .MILLI., .METRE. ) );
#221 = VECTOR ( 'NONE', #29, 1000.000000000000000 ) ;
#222 = APPROVAL_ROLE ( '' ) ;
#223 = LINE ( 'NONE', #140, #170 ) ;
#224 = AXIS2_PLACEMENT_3D ( 'NONE', #200, #67, #158 ) ;
#225 = ADVANCED_FACE ( 'NONE', ( #161 ), #176, .F. ) ;
#226 = CC_DESIGN_DATE_AND_TIME_ASSIGNMENT ( #86, #212, ( #139 ) ) ;
#227 = ORIENTED_EDGE ( 'NONE', *, *, #79, .T. ) ;
#228 = VECTOR ( 'NONE', #13, 1000.000000000000000 ) ;
#229 = APPLICATION_CONTEXT ( 'configuration controlled 3d designs of mechanical parts and assemblies' ) ;
#230 = VECTOR ( 'NONE', #146, 1000.000000000000000 ) ;
#231 = VECTOR ( 'NONE', #72, 1000.000000000000000 ) ;
#232 = ORIENTED_EDGE ( 'NONE', *, *, #96, .T. ) ;
#233 = VECTOR ( 'NONE', #184, 1000.000000000000000 ) ;
#234 = CARTESIAN_POINT ( 'NONE',  ( -12.50000000000000000, -12.50000000000000000, 1.000000000000000000 ) ) ;
#235 = CARTESIAN_POINT ( 'NONE',  ( -12.50000000000000000, -12.50000000000000000, 1.000000000000000000 ) ) ;
#236 = DIRECTION ( 'NONE',  ( 1.000000000000000000, 0.0000000000000000000, 0.0000000000000000000 ) ) ;
#237 = EDGE_LOOP ( 'NONE', ( #92, #130, #113, #167 ) ) ;
ENDSEC;
END-ISO-10303-21;
