ISO-10303-21;
HEADER;
FILE_DESCRIPTION (( 'STEP AP203' ),
    '1' );
FILE_NAME ('TTN162821-E0W.STEP',
    '2019-10-24T14:19:40',
    ( '' ),
    ( '' ),
    'SwSTEP 2.0',
    'SolidWorks 2018',
    '' );
FILE_SCHEMA (( 'CONFIG_CONTROL_DESIGN' ));
ENDSEC;

DATA;
#1 = ORIENTED_EDGE ( 'NONE', *, *, #66, .T. ) ;
#2 = PLANE ( 'NONE',  #134 ) ;
#3 = AXIS2_PLACEMENT_3D ( 'NONE', #174, #44, #321 ) ;
#4 = ORIENTED_EDGE ( 'NONE', *, *, #57, .T. ) ;
#5 = DIRECTION ( 'NONE',  ( 1.000000000000000000, 0.0000000000000000000, 0.0000000000000000000 ) ) ;
#6 = COORDINATED_UNIVERSAL_TIME_OFFSET ( 5, 0, .BEHIND. ) ;
#7 = DIRECTION ( 'NONE',  ( 0.0000000000000000000, 1.000000000000000000, 0.0000000000000000000 ) ) ;
#8 = VERTEX_POINT ( 'NONE', #113 ) ;
#9 = CARTESIAN_POINT ( 'NONE',  ( -0.01118057066802949882, 0.7876339392709050813, 2.081300828166013250 ) ) ;
#10 =( GEOMETRIC_REPRESENTATION_CONTEXT ( 3 ) GLOBAL_UNCERTAINTY_ASSIGNED_CONTEXT ( ( #53 ) ) GLOBAL_UNIT_ASSIGNED_CONTEXT ( ( #156, #276, #76 ) ) REPRESENTATION_CONTEXT ( 'NONE', 'WORKASPACE' ) );
#11 = CARTESIAN_POINT ( 'NONE',  ( 0.9888194293319705341, 0.7876339392709049703, 1.081300828166013028 ) ) ;
#12 = ADVANCED_FACE ( 'NONE', ( #105 ), #231, .T. ) ;
#13 = AXIS2_PLACEMENT_3D ( 'NONE', #241, #189, #148 ) ;
#14 = ORIENTED_EDGE ( 'NONE', *, *, #25, .F. ) ;
#15 = CIRCLE ( 'NONE', #74, 0.9500000000000005107 ) ;
#16 = CARTESIAN_POINT ( 'NONE',  ( 1.988819429331970312, 0.7876339392709050813, 1.862063985390161047 ) ) ;
#17 = APPLICATION_PROTOCOL_DEFINITION ( 'international standard', 'config_control_design', 1994, #317 ) ;
#18 = CARTESIAN_POINT ( 'NONE',  ( -0.01118057066802949882, 0.7876339392709050813, 1.131300828166013295 ) ) ;
#19 = CYLINDRICAL_SURFACE ( 'NONE', #283, 0.9999999999999997780 ) ;
#20 = PRODUCT_DEFINITION ( 'UNKNOWN', '', #227, #193 ) ;
#21 = DATE_TIME_ROLE ( 'classification_date' ) ;
#22 = CC_DESIGN_DATE_AND_TIME_ASSIGNMENT ( #247, #248, ( #20 ) ) ;
#23 = LINE ( 'NONE', #16, #312 ) ;
#24 = CIRCLE ( 'NONE', #112, 0.9999999999999997780 ) ;
#25 = EDGE_CURVE ( 'NONE', #133, #228, #284, .T. ) ;
#26 = CARTESIAN_POINT ( 'NONE',  ( 0.9888194293319705341, 0.7876339392709049703, -0.6696991718339868616 ) ) ;
#27 = LOCAL_TIME ( 10, 19, 40.00000000000000000, #170 ) ;
#28 = ORIENTED_EDGE ( 'NONE', *, *, #66, .F. ) ;
#29 = AXIS2_PLACEMENT_3D ( 'NONE', #230, #30, #289 ) ;
#30 = DIRECTION ( 'NONE',  ( 0.0000000000000000000, 0.0000000000000000000, -1.000000000000000000 ) ) ;
#31 = COORDINATED_UNIVERSAL_TIME_OFFSET ( 5, 0, .BEHIND. ) ;
#32 = CIRCLE ( 'NONE', #13, 0.9500000000000005107 ) ;
#33 = CARTESIAN_POINT ( 'NONE',  ( 1.988819429331970312, 0.7876339392709049703, 1.862063985390161047 ) ) ;
#34 = CC_DESIGN_PERSON_AND_ORGANIZATION_ASSIGNMENT ( #219, #179, ( #82 ) ) ;
#35 = CONICAL_SURFACE ( 'NONE', #123, 0.9999999999999997780, 0.7853981633974439491 ) ;
#36 = CIRCLE ( 'NONE', #3, 0.9500000000000002887 ) ;
#37 = CARTESIAN_POINT ( 'NONE',  ( 0.9888194293319705341, 0.7876339392709049703, 1.862063985390161047 ) ) ;
#38 = COORDINATED_UNIVERSAL_TIME_OFFSET ( 5, 0, .BEHIND. ) ;
#39 = CC_DESIGN_PERSON_AND_ORGANIZATION_ASSIGNMENT ( #166, #275, ( #227 ) ) ;
#40 = ORIENTED_EDGE ( 'NONE', *, *, #124, .T. ) ;
#41 = DIRECTION ( 'NONE',  ( 0.0000000000000000000, 0.0000000000000000000, -1.000000000000000000 ) ) ;
#42 = MANIFOLD_SOLID_BREP ( 'TTN162786-1-solid1', #89 ) ;
#43 = LINE ( 'NONE', #147, #177 ) ;
#44 = DIRECTION ( 'NONE',  ( 0.0000000000000000000, 0.0000000000000000000, -1.000000000000000000 ) ) ;
#45 = CARTESIAN_POINT ( 'NONE',  ( 1.938819429331970934, 0.7876339392709049703, 1.081300828166013028 ) ) ;
#46 = APPROVAL_STATUS ( 'not_yet_approved' ) ;
#47 = ORIENTED_EDGE ( 'NONE', *, *, #86, .F. ) ;
#48 = AXIS2_PLACEMENT_3D ( 'NONE', #163, #121, #145 ) ;
#49 = DATE_AND_TIME ( #255, #136 ) ;
#50 = EDGE_LOOP ( 'NONE', ( #307, #162, #40, #265 ) ) ;
#51 = DIRECTION ( 'NONE',  ( 1.000000000000000000, 0.0000000000000000000, 0.0000000000000000000 ) ) ;
#52 = PRODUCT ( 'TTN162821-E0W', 'TTN162821-E0W', '', ( #72 ) ) ;
#53 = UNCERTAINTY_MEASURE_WITH_UNIT (LENGTH_MEASURE( 1.000000000000000082E-05 ), #156, 'distance_accuracy_value', 'NONE');
#54 = PERSON ( 'UNSPECIFIED', 'UNSPECIFIED', 'UNSPECIFIED', ('UNSPECIFIED'), ('UNSPECIFIED'), ('UNSPECIFIED') ) ;
#55 = CARTESIAN_POINT ( 'NONE',  ( 1.938819429331971156, 0.7876339392709050813, 1.912063985390160870 ) ) ;
#56 = VERTEX_POINT ( 'NONE', #55 ) ;
#57 = EDGE_CURVE ( 'NONE', #70, #122, #224, .T. ) ;
#58 = CARTESIAN_POINT ( 'NONE',  ( 0.9888194293319703121, -0.1623660607290952629, 1.912063985390160870 ) ) ;
#59 = CARTESIAN_POINT ( 'NONE',  ( 0.9888194293319705341, 0.7876339392709049703, 1.131300828166013295 ) ) ;
#60 = DIRECTION ( 'NONE',  ( 1.000000000000000000, 0.0000000000000000000, 0.0000000000000000000 ) ) ;
#61 = VERTEX_POINT ( 'NONE', #185 ) ;
#62 = VECTOR ( 'NONE', #261, 1000.000000000000000 ) ;
#63 = CC_DESIGN_PERSON_AND_ORGANIZATION_ASSIGNMENT ( #290, #131, ( #227 ) ) ;
#64 = DIRECTION ( 'NONE',  ( -0.0000000000000000000, -0.0000000000000000000, 1.000000000000000000 ) ) ;
#65 = ADVANCED_FACE ( 'NONE', ( #95 ), #19, .T. ) ;
#66 = EDGE_CURVE ( 'NONE', #56, #313, #293, .T. ) ;
#67 = ORIENTED_EDGE ( 'NONE', *, *, #57, .F. ) ;
#68 = ADVANCED_FACE ( 'NONE', ( #176 ), #2, .F. ) ;
#69 = AXIS2_PLACEMENT_3D ( 'NONE', #104, #152, #41 ) ;
#70 = VERTEX_POINT ( 'NONE', #257 ) ;
#71 = VECTOR ( 'NONE', #214, 1000.000000000000000 ) ;
#72 = MECHANICAL_CONTEXT ( 'NONE', #317, 'mechanical' ) ;
#73 = LOCAL_TIME ( 10, 19, 40.00000000000000000, #6 ) ;
#74 = AXIS2_PLACEMENT_3D ( 'NONE', #216, #165, #236 ) ;
#75 = APPROVAL_ROLE ( '' ) ;
#76 =( NAMED_UNIT ( * ) SI_UNIT ( $, .STERADIAN. ) SOLID_ANGLE_UNIT ( ) );
#77 = EDGE_CURVE ( 'NONE', #208, #8, #24, .T. ) ;
#78 = ORIENTED_EDGE ( 'NONE', *, *, #202, .F. ) ;
#79 = LINE ( 'NONE', #287, #62 ) ;
#80 = DIRECTION ( 'NONE',  ( 0.0000000000000000000, -0.0000000000000000000, 1.000000000000000000 ) ) ;
#81 = CARTESIAN_POINT ( 'NONE',  ( 0.9888194293319705341, 0.7876339392709049703, 1.912063985390160870 ) ) ;
#82 = SECURITY_CLASSIFICATION ( '', '', #298 ) ;
#83 = CALENDAR_DATE ( 2019, 24, 10 ) ;
#84 = ORGANIZATION ( 'UNSPECIFIED', 'UNSPECIFIED', '' ) ;
#85 = EDGE_LOOP ( 'NONE', ( #184, #102, #271, #171 ) ) ;
#86 = EDGE_CURVE ( 'NONE', #313, #70, #32, .T. ) ;
#87 = DIRECTION ( 'NONE',  ( -0.0000000000000000000, -0.0000000000000000000, 1.000000000000000000 ) ) ;
#88 = CARTESIAN_POINT ( 'NONE',  ( 0.9888194293319705341, 0.7876339392709049703, 1.862063985390161047 ) ) ;
#89 = CLOSED_SHELL ( 'NONE', ( #172, #12, #97, #295, #68, #65, #245, #194, #169 ) ) ;
#90 = AXIS2_PLACEMENT_3D ( 'NONE', #155, #222, #316 ) ;
#91 = CIRCLE ( 'NONE', #315, 0.9999999999999997780 ) ;
#92 = DIRECTION ( 'NONE',  ( 0.0000000000000000000, 0.0000000000000000000, -1.000000000000000000 ) ) ;
#93 = CARTESIAN_POINT ( 'NONE',  ( 0.9888194293319705341, 0.7876339392709049703, 1.131300828166013295 ) ) ;
#94 = CYLINDRICAL_SURFACE ( 'NONE', #100, 0.9999999999999997780 ) ;
#95 = FACE_OUTER_BOUND ( 'NONE', #212, .T. ) ;
#96 = SPHERICAL_SURFACE ( 'NONE', #168, 2.750999999999999890 ) ;
#97 = ADVANCED_FACE ( 'NONE', ( #159 ), #311, .T. ) ;
#98 = CC_DESIGN_APPROVAL ( #215, ( #227 ) ) ;
#99 = ADVANCED_BREP_SHAPE_REPRESENTATION ( 'TTN162821-E0W', ( #42, #251 ), #10 ) ;
#100 = AXIS2_PLACEMENT_3D ( 'NONE', #297, #253, #108 ) ;
#101 = PERSON_AND_ORGANIZATION ( #54, #84 ) ;
#102 = ORIENTED_EDGE ( 'NONE', *, *, #25, .T. ) ;
#103 = PRODUCT_RELATED_PRODUCT_CATEGORY ( 'detail', '', ( #52 ) ) ;
#104 = CARTESIAN_POINT ( 'NONE',  ( 0.9888194293319705341, 0.7876339392709049703, -0.6696991718339868616 ) ) ;
#105 = FACE_OUTER_BOUND ( 'NONE', #85, .T. ) ;
#106 = CARTESIAN_POINT ( 'NONE',  ( 0.0000000000000000000, 0.0000000000000000000, 0.0000000000000000000 ) ) ;
#107 = EDGE_CURVE ( 'NONE', #8, #122, #158, .T. ) ;
#108 = DIRECTION ( 'NONE',  ( 1.000000000000000000, 0.0000000000000000000, 0.0000000000000000000 ) ) ;
#109 = CARTESIAN_POINT ( 'NONE',  ( 0.9888194293319705341, 1.737633939270905259, 1.912063985390160870 ) ) ;
#110 = EDGE_LOOP ( 'NONE', ( #28, #220, #256, #67, #47 ) ) ;
#111 = CIRCLE ( 'NONE', #277, 0.9500000000000005107 ) ;
#112 = AXIS2_PLACEMENT_3D ( 'NONE', #93, #263, #262 ) ;
#113 = CARTESIAN_POINT ( 'NONE',  ( -0.01118057066802949882, 0.7876339392709050813, 1.131300828166013295 ) ) ;
#114 = LINE ( 'NONE', #18, #153 ) ;
#115 = CC_DESIGN_DATE_AND_TIME_ASSIGNMENT ( #157, #21, ( #82 ) ) ;
#116 = PERSON_AND_ORGANIZATION ( #54, #84 ) ;
#117 = DIRECTION ( 'NONE',  ( -1.000000000000000000, 0.0000000000000000000, 0.0000000000000000000 ) ) ;
#118 = ORIENTED_EDGE ( 'NONE', *, *, #299, .T. ) ;
#119 = EDGE_CURVE ( 'NONE', #61, #243, #294, .T. ) ;
#120 = APPROVAL_PERSON_ORGANIZATION ( #116, #215, #75 ) ;
#121 = DIRECTION ( 'NONE',  ( -0.0000000000000000000, -0.0000000000000000000, 1.000000000000000000 ) ) ;
#122 = VERTEX_POINT ( 'NONE', #242 ) ;
#123 = AXIS2_PLACEMENT_3D ( 'NONE', #59, #309, #211 ) ;
#124 = EDGE_CURVE ( 'NONE', #243, #208, #79, .T. ) ;
#125 = SHAPE_DEFINITION_REPRESENTATION ( #233, #99 ) ;
#126 = EDGE_LOOP ( 'NONE', ( #14, #254, #1, #310 ) ) ;
#127 = EDGE_LOOP ( 'NONE', ( #192, #205, #279, #195 ) ) ;
#128 = FACE_OUTER_BOUND ( 'NONE', #50, .T. ) ;
#129 = DIRECTION ( 'NONE',  ( 0.0000000000000000000, 0.0000000000000000000, -1.000000000000000000 ) ) ;
#130 = DIRECTION ( 'NONE',  ( -1.000000000000000000, 0.0000000000000000000, 0.0000000000000000000 ) ) ;
#131 = PERSON_AND_ORGANIZATION_ROLE ( 'design_supplier' ) ;
#132 = FACE_OUTER_BOUND ( 'NONE', #146, .T. ) ;
#133 = VERTEX_POINT ( 'NONE', #58 ) ;
#134 = AXIS2_PLACEMENT_3D ( 'NONE', #142, #80, #51 ) ;
#135 = EDGE_CURVE ( 'NONE', #122, #141, #91, .T. ) ;
#136 = LOCAL_TIME ( 10, 19, 40.00000000000000000, #264 ) ;
#137 = ORIENTED_EDGE ( 'NONE', *, *, #140, .T. ) ;
#138 = CARTESIAN_POINT ( 'NONE',  ( 0.9888194293319705341, 0.7876339392709049703, 2.081300828166013250 ) ) ;
#139 = APPROVAL_DATE_TIME ( #200, #302 ) ;
#140 = EDGE_CURVE ( 'NONE', #208, #141, #43, .T. ) ;
#141 = VERTEX_POINT ( 'NONE', #33 ) ;
#142 = CARTESIAN_POINT ( 'NONE',  ( 0.9888194293319705341, 0.7876339392709049703, 1.081300828166013028 ) ) ;
#143 = CARTESIAN_POINT ( 'NONE',  ( 1.988819429331970312, 0.7876339392709049703, 1.131300828166013295 ) ) ;
#144 = APPROVAL ( #178, 'UNSPECIFIED' ) ;
#145 = DIRECTION ( 'NONE',  ( 1.000000000000000000, 0.0000000000000000000, 0.0000000000000000000 ) ) ;
#146 = EDGE_LOOP ( 'NONE', ( #188, #181, #78, #4, #320 ) ) ;
#147 = CARTESIAN_POINT ( 'NONE',  ( 1.988819429331970312, 0.7876339392709049703, 2.081300828166013250 ) ) ;
#148 = DIRECTION ( 'NONE',  ( 1.000000000000000000, 0.0000000000000000000, 0.0000000000000000000 ) ) ;
#149 = EDGE_LOOP ( 'NONE', ( #288, #303, #154, #249 ) ) ;
#150 = DATE_AND_TIME ( #300, #269 ) ;
#151 = ORIENTED_EDGE ( 'NONE', *, *, #119, .T. ) ;
#152 = DIRECTION ( 'NONE',  ( 1.000000000000000000, 0.0000000000000000000, 0.0000000000000000000 ) ) ;
#153 = VECTOR ( 'NONE', #203, 1000.000000000000000 ) ;
#154 = ORIENTED_EDGE ( 'NONE', *, *, #164, .F. ) ;
#155 = CARTESIAN_POINT ( 'NONE',  ( 0.9888194293319705341, 0.7876339392709049703, 1.131300828166013295 ) ) ;
#156 =( LENGTH_UNIT ( ) NAMED_UNIT ( * ) SI_UNIT ( .MILLI., .METRE. ) );
#157 = DATE_AND_TIME ( #296, #27 ) ;
#158 = LINE ( 'NONE', #9, #71 ) ;
#159 = FACE_OUTER_BOUND ( 'NONE', #110, .T. ) ;
#160 = DIRECTION ( 'NONE',  ( -1.576448087946934872E-16, -1.000000000000000000, 0.0000000000000000000 ) ) ;
#161 = CARTESIAN_POINT ( 'NONE',  ( 0.9888194293319705341, 0.7876339392709049703, 1.912063985390160870 ) ) ;
#162 = ORIENTED_EDGE ( 'NONE', *, *, #218, .F. ) ;
#163 = CARTESIAN_POINT ( 'NONE',  ( 0.9888194293319705341, 0.7876339392709049703, 1.862063985390161047 ) ) ;
#164 = EDGE_CURVE ( 'NONE', #141, #122, #285, .T. ) ;
#165 = DIRECTION ( 'NONE',  ( -0.0000000000000000000, -0.0000000000000000000, 1.000000000000000000 ) ) ;
#166 = PERSON_AND_ORGANIZATION ( #54, #84 ) ;
#167 = CIRCLE ( 'NONE', #69, 2.750999999999999890 ) ;
#168 = AXIS2_PLACEMENT_3D ( 'NONE', #267, #117, #7 ) ;
#169 = ADVANCED_FACE ( 'NONE', ( #128 ), #238, .T. ) ;
#170 = COORDINATED_UNIVERSAL_TIME_OFFSET ( 5, 0, .BEHIND. ) ;
#171 = ORIENTED_EDGE ( 'NONE', *, *, #86, .T. ) ;
#172 = ADVANCED_FACE ( 'NONE', ( #182 ), #35, .T. ) ;
#173 = CC_DESIGN_PERSON_AND_ORGANIZATION_ASSIGNMENT ( #306, #318, ( #20 ) ) ;
#174 = CARTESIAN_POINT ( 'NONE',  ( 0.9888194293319705341, 0.7876339392709049703, 1.081300828166013028 ) ) ;
#175 = CONICAL_SURFACE ( 'NONE', #186, 1.000000000000000000, 0.7853981633974472798 ) ;
#176 = FACE_OUTER_BOUND ( 'NONE', #237, .T. ) ;
#177 = VECTOR ( 'NONE', #87, 1000.000000000000000 ) ;
#178 = APPROVAL_STATUS ( 'not_yet_approved' ) ;
#179 = PERSON_AND_ORGANIZATION_ROLE ( 'classification_officer' ) ;
#180 = LOCAL_TIME ( 10, 19, 40.00000000000000000, #31 ) ;
#181 = ORIENTED_EDGE ( 'NONE', *, *, #187, .F. ) ;
#182 = FACE_OUTER_BOUND ( 'NONE', #127, .T. ) ;
#183 = APPROVAL_DATE_TIME ( #49, #144 ) ;
#184 = ORIENTED_EDGE ( 'NONE', *, *, #202, .T. ) ;
#185 = CARTESIAN_POINT ( 'NONE',  ( 0.03881942933197019691, 0.7876339392709050813, 1.081300828166013028 ) ) ;
#186 = AXIS2_PLACEMENT_3D ( 'NONE', #37, #129, #130 ) ;
#187 = EDGE_CURVE ( 'NONE', #133, #56, #15, .T. ) ;
#188 = ORIENTED_EDGE ( 'NONE', *, *, #246, .F. ) ;
#189 = DIRECTION ( 'NONE',  ( -0.0000000000000000000, -0.0000000000000000000, 1.000000000000000000 ) ) ;
#190 = DIRECTION ( 'NONE',  ( -0.0000000000000000000, -0.0000000000000000000, 1.000000000000000000 ) ) ;
#191 = CC_DESIGN_APPROVAL ( #302, ( #82 ) ) ;
#192 = ORIENTED_EDGE ( 'NONE', *, *, #119, .F. ) ;
#193 = DESIGN_CONTEXT ( 'detailed design', #252, 'design' ) ;
#194 = ADVANCED_FACE ( 'NONE', ( #274 ), #96, .T. ) ;
#195 = ORIENTED_EDGE ( 'NONE', *, *, #124, .F. ) ;
#196 = ORIENTED_EDGE ( 'NONE', *, *, #218, .T. ) ;
#197 = CARTESIAN_POINT ( 'NONE',  ( 0.9888194293319705341, 0.7876339392709051923, 2.081300828166013250 ) ) ;
#198 = DIRECTION ( 'NONE',  ( 0.0000000000000000000, 0.0000000000000000000, 1.000000000000000000 ) ) ;
#199 = CC_DESIGN_APPROVAL ( #144, ( #20 ) ) ;
#200 = DATE_AND_TIME ( #258, #73 ) ;
#201 = DIRECTION ( 'NONE',  ( 1.000000000000000000, 0.0000000000000000000, 0.0000000000000000000 ) ) ;
#202 = EDGE_CURVE ( 'NONE', #70, #133, #111, .T. ) ;
#203 = DIRECTION ( 'NONE',  ( -0.7071067811865444641, 8.659560562354895880E-17, 0.7071067811865505703 ) ) ;
#204 = APPROVAL_PERSON_ORGANIZATION ( #270, #144, #319 ) ;
#205 = ORIENTED_EDGE ( 'NONE', *, *, #301, .T. ) ;
#206 = CC_DESIGN_SECURITY_CLASSIFICATION ( #82, ( #227 ) ) ;
#207 = DIRECTION ( 'NONE',  ( 1.000000000000000000, 0.0000000000000000000, 0.0000000000000000000 ) ) ;
#208 = VERTEX_POINT ( 'NONE', #143 ) ;
#209 = DIRECTION ( 'NONE',  ( 1.000000000000000000, 0.0000000000000000000, 0.0000000000000000000 ) ) ;
#210 = APPROVAL_PERSON_ORGANIZATION ( #101, #302, #226 ) ;
#211 = DIRECTION ( 'NONE',  ( 1.000000000000000000, 0.0000000000000000000, 0.0000000000000000000 ) ) ;
#212 = EDGE_LOOP ( 'NONE', ( #314, #118, #137, #260 ) ) ;
#213 = AXIS2_PLACEMENT_3D ( 'NONE', #305, #235, #160 ) ;
#214 = DIRECTION ( 'NONE',  ( -0.0000000000000000000, -0.0000000000000000000, 1.000000000000000000 ) ) ;
#215 = APPROVAL ( #225, 'UNSPECIFIED' ) ;
#216 = CARTESIAN_POINT ( 'NONE',  ( 0.9888194293319705341, 0.7876339392709049703, 1.912063985390160870 ) ) ;
#217 = VECTOR ( 'NONE', #304, 999.9999999999998863 ) ;
#218 = EDGE_CURVE ( 'NONE', #243, #61, #36, .T. ) ;
#219 = PERSON_AND_ORGANIZATION ( #54, #84 ) ;
#220 = ORIENTED_EDGE ( 'NONE', *, *, #246, .T. ) ;
#221 = DIRECTION ( 'NONE',  ( 0.7071067811865467956, 8.659560562354925463E-17, -0.7071067811865483499 ) ) ;
#222 = DIRECTION ( 'NONE',  ( -0.0000000000000000000, -0.0000000000000000000, 1.000000000000000000 ) ) ;
#223 = CIRCLE ( 'NONE', #90, 0.9999999999999997780 ) ;
#224 = LINE ( 'NONE', #281, #217 ) ;
#225 = APPROVAL_STATUS ( 'not_yet_approved' ) ;
#226 = APPROVAL_ROLE ( '' ) ;
#227 = PRODUCT_DEFINITION_FORMATION_WITH_SPECIFIED_SOURCE ( 'ANY', '', #52, .NOT_KNOWN. ) ;
#228 = VERTEX_POINT ( 'NONE', #197 ) ;
#229 = AXIS2_PLACEMENT_3D ( 'NONE', #26, #282, #280 ) ;
#230 = CARTESIAN_POINT ( 'NONE',  ( 0.9888194293319705341, 0.7876339392709049703, 1.862063985390161047 ) ) ;
#231 = SPHERICAL_SURFACE ( 'NONE', #229, 2.750999999999999890 ) ;
#232 = DIRECTION ( 'NONE',  ( -0.0000000000000000000, -0.0000000000000000000, 1.000000000000000000 ) ) ;
#233 = PRODUCT_DEFINITION_SHAPE ( 'NONE', 'NONE',  #20 ) ;
#234 = EDGE_CURVE ( 'NONE', #313, #228, #167, .T. ) ;
#235 = DIRECTION ( 'NONE',  ( -1.000000000000000000, 1.224646799147353207E-16, 0.0000000000000000000 ) ) ;
#236 = DIRECTION ( 'NONE',  ( 1.000000000000000000, 0.0000000000000000000, 0.0000000000000000000 ) ) ;
#237 = EDGE_LOOP ( 'NONE', ( #196, #151 ) ) ;
#238 = CONICAL_SURFACE ( 'NONE', #272, 0.9999999999999997780, 0.7853981633974439491 ) ;
#239 = DIRECTION ( 'NONE',  ( 1.000000000000000000, 0.0000000000000000000, 0.0000000000000000000 ) ) ;
#240 = CC_DESIGN_PERSON_AND_ORGANIZATION_ASSIGNMENT ( #278, #250, ( #52 ) ) ;
#241 = CARTESIAN_POINT ( 'NONE',  ( 0.9888194293319705341, 0.7876339392709049703, 1.912063985390160870 ) ) ;
#242 = CARTESIAN_POINT ( 'NONE',  ( -0.01118057066802949882, 0.7876339392709050813, 1.862063985390161047 ) ) ;
#243 = VERTEX_POINT ( 'NONE', #45 ) ;
#244 = AXIS2_PLACEMENT_3D ( 'NONE', #11, #92, #209 ) ;
#245 = ADVANCED_FACE ( 'NONE', ( #132 ), #175, .T. ) ;
#246 = EDGE_CURVE ( 'NONE', #56, #141, #23, .T. ) ;
#247 = DATE_AND_TIME ( #83, #180 ) ;
#248 = DATE_TIME_ROLE ( 'creation_date' ) ;
#249 = ORIENTED_EDGE ( 'NONE', *, *, #140, .F. ) ;
#250 = PERSON_AND_ORGANIZATION_ROLE ( 'design_owner' ) ;
#251 = AXIS2_PLACEMENT_3D ( 'NONE', #106, #198, #201 ) ;
#252 = APPLICATION_CONTEXT ( 'configuration controlled 3d designs of mechanical parts and assemblies' ) ;
#253 = DIRECTION ( 'NONE',  ( -0.0000000000000000000, -0.0000000000000000000, 1.000000000000000000 ) ) ;
#254 = ORIENTED_EDGE ( 'NONE', *, *, #187, .T. ) ;
#255 = CALENDAR_DATE ( 2019, 24, 10 ) ;
#256 = ORIENTED_EDGE ( 'NONE', *, *, #164, .T. ) ;
#257 = CARTESIAN_POINT ( 'NONE',  ( 0.03881942933197009282, 0.7876339392709049703, 1.912063985390160870 ) ) ;
#258 = CALENDAR_DATE ( 2019, 24, 10 ) ;
#259 = DIRECTION ( 'NONE',  ( -0.0000000000000000000, -0.0000000000000000000, 1.000000000000000000 ) ) ;
#260 = ORIENTED_EDGE ( 'NONE', *, *, #135, .F. ) ;
#261 = DIRECTION ( 'NONE',  ( 0.7071067811865444641, 0.0000000000000000000, 0.7071067811865505703 ) ) ;
#262 = DIRECTION ( 'NONE',  ( 1.000000000000000000, 0.0000000000000000000, 0.0000000000000000000 ) ) ;
#263 = DIRECTION ( 'NONE',  ( -0.0000000000000000000, -0.0000000000000000000, 1.000000000000000000 ) ) ;
#264 = COORDINATED_UNIVERSAL_TIME_OFFSET ( 5, 0, .BEHIND. ) ;
#265 = ORIENTED_EDGE ( 'NONE', *, *, #299, .F. ) ;
#266 = AXIS2_PLACEMENT_3D ( 'NONE', #81, #232, #207 ) ;
#267 = CARTESIAN_POINT ( 'NONE',  ( 0.9888194293319705341, 0.7876339392709049703, -0.6696991718339868616 ) ) ;
#268 = DIRECTION ( 'NONE',  ( 1.000000000000000000, 0.0000000000000000000, 0.0000000000000000000 ) ) ;
#269 = LOCAL_TIME ( 10, 19, 40.00000000000000000, #38 ) ;
#270 = PERSON_AND_ORGANIZATION ( #54, #84 ) ;
#271 = ORIENTED_EDGE ( 'NONE', *, *, #234, .F. ) ;
#272 = AXIS2_PLACEMENT_3D ( 'NONE', #308, #190, #239 ) ;
#273 = APPLICATION_PROTOCOL_DEFINITION ( 'international standard', 'config_control_design', 1994, #252 ) ;
#274 = FACE_OUTER_BOUND ( 'NONE', #126, .T. ) ;
#275 = PERSON_AND_ORGANIZATION_ROLE ( 'creator' ) ;
#276 =( NAMED_UNIT ( * ) PLANE_ANGLE_UNIT ( ) SI_UNIT ( $, .RADIAN. ) );
#277 = AXIS2_PLACEMENT_3D ( 'NONE', #161, #291, #268 ) ;
#278 = PERSON_AND_ORGANIZATION ( #54, #84 ) ;
#279 = ORIENTED_EDGE ( 'NONE', *, *, #77, .F. ) ;
#280 = DIRECTION ( 'NONE',  ( 0.0000000000000000000, 1.000000000000000000, 0.0000000000000000000 ) ) ;
#281 = CARTESIAN_POINT ( 'NONE',  ( -0.01118057066802949882, 0.7876339392709049703, 1.862063985390161047 ) ) ;
#282 = DIRECTION ( 'NONE',  ( -1.000000000000000000, 0.0000000000000000000, 0.0000000000000000000 ) ) ;
#283 = AXIS2_PLACEMENT_3D ( 'NONE', #138, #259, #5 ) ;
#284 = CIRCLE ( 'NONE', #213, 2.750999999999999890 ) ;
#285 = CIRCLE ( 'NONE', #48, 0.9999999999999997780 ) ;
#286 = APPROVAL_DATE_TIME ( #150, #215 ) ;
#287 = CARTESIAN_POINT ( 'NONE',  ( 1.988819429331970312, 0.7876339392709049703, 1.131300828166013295 ) ) ;
#288 = ORIENTED_EDGE ( 'NONE', *, *, #77, .T. ) ;
#289 = DIRECTION ( 'NONE',  ( -1.000000000000000000, 0.0000000000000000000, 0.0000000000000000000 ) ) ;
#290 = PERSON_AND_ORGANIZATION ( #54, #84 ) ;
#291 = DIRECTION ( 'NONE',  ( -0.0000000000000000000, -0.0000000000000000000, 1.000000000000000000 ) ) ;
#292 = FACE_OUTER_BOUND ( 'NONE', #149, .T. ) ;
#293 = CIRCLE ( 'NONE', #266, 0.9500000000000005107 ) ;
#294 = CIRCLE ( 'NONE', #244, 0.9500000000000002887 ) ;
#295 = ADVANCED_FACE ( 'NONE', ( #292 ), #94, .T. ) ;
#296 = CALENDAR_DATE ( 2019, 24, 10 ) ;
#297 = CARTESIAN_POINT ( 'NONE',  ( 0.9888194293319705341, 0.7876339392709049703, 2.081300828166013250 ) ) ;
#298 = SECURITY_CLASSIFICATION_LEVEL ( 'unclassified' ) ;
#299 = EDGE_CURVE ( 'NONE', #8, #208, #223, .T. ) ;
#300 = CALENDAR_DATE ( 2019, 24, 10 ) ;
#301 = EDGE_CURVE ( 'NONE', #61, #8, #114, .T. ) ;
#302 = APPROVAL ( #46, 'UNSPECIFIED' ) ;
#303 = ORIENTED_EDGE ( 'NONE', *, *, #107, .T. ) ;
#304 = DIRECTION ( 'NONE',  ( -0.7071067811865467956, 0.0000000000000000000, -0.7071067811865483499 ) ) ;
#305 = CARTESIAN_POINT ( 'NONE',  ( 0.9888194293319705341, 0.7876339392709049703, -0.6696991718339868616 ) ) ;
#306 = PERSON_AND_ORGANIZATION ( #54, #84 ) ;
#307 = ORIENTED_EDGE ( 'NONE', *, *, #301, .F. ) ;
#308 = CARTESIAN_POINT ( 'NONE',  ( 0.9888194293319705341, 0.7876339392709049703, 1.131300828166013295 ) ) ;
#309 = DIRECTION ( 'NONE',  ( -0.0000000000000000000, -0.0000000000000000000, 1.000000000000000000 ) ) ;
#310 = ORIENTED_EDGE ( 'NONE', *, *, #234, .T. ) ;
#311 = CONICAL_SURFACE ( 'NONE', #29, 1.000000000000000000, 0.7853981633974472798 ) ;
#312 = VECTOR ( 'NONE', #221, 999.9999999999998863 ) ;
#313 = VERTEX_POINT ( 'NONE', #109 ) ;
#314 = ORIENTED_EDGE ( 'NONE', *, *, #107, .F. ) ;
#315 = AXIS2_PLACEMENT_3D ( 'NONE', #88, #64, #60 ) ;
#316 = DIRECTION ( 'NONE',  ( 1.000000000000000000, 0.0000000000000000000, 0.0000000000000000000 ) ) ;
#317 = APPLICATION_CONTEXT ( 'configuration controlled 3d designs of mechanical parts and assemblies' ) ;
#318 = PERSON_AND_ORGANIZATION_ROLE ( 'creator' ) ;
#319 = APPROVAL_ROLE ( '' ) ;
#320 = ORIENTED_EDGE ( 'NONE', *, *, #135, .T. ) ;
#321 = DIRECTION ( 'NONE',  ( 1.000000000000000000, 0.0000000000000000000, 0.0000000000000000000 ) ) ;
ENDSEC;
END-ISO-10303-21;
