ISO-10303-21;
HEADER;
FILE_DESCRIPTION (( 'STEP AP203' ),
    '1' );
FILE_NAME ('Web Model 46068_46068.step',
    '2017-07-13T13:29:03',
    ( '' ),
    ( '' ),
    'SwSTEP 2.0',
    'SolidWorks 2016',
    '' );
FILE_SCHEMA (( 'CONFIG_CONTROL_DESIGN' ));
ENDSEC;

DATA;
#1 = CARTESIAN_POINT ( 'NONE',  ( -12.49999999999999800, 12.49999999999999800, -1.500000000000000000 ) ) ;
#2 = DIRECTION ( 'NONE',  ( -0.0000000000000000000, -0.0000000000000000000, -1.000000000000000000 ) ) ;
#3 = DIRECTION ( 'NONE',  ( 0.0000000000000000000, 1.000000000000000000, 0.0000000000000000000 ) ) ;
#4 = PRODUCT_DEFINITION ( 'UNKNOWN', '', #17, #112 ) ;
#5 = ORIENTED_EDGE ( 'NONE', *, *, #58, .T. ) ;
#6 = PERSON_AND_ORGANIZATION ( #9, #135 ) ;
#7 = VECTOR ( 'NONE', #123, 1000.000000000000000 ) ;
#8 = UNCERTAINTY_MEASURE_WITH_UNIT (LENGTH_MEASURE( 1.000000000000000100E-005 ), #225, 'distance_accuracy_value', 'NONE');
#9 = PERSON ( 'UNSPECIFIED', 'UNSPECIFIED', 'UNSPECIFIED', ('UNSPECIFIED'), ('UNSPECIFIED'), ('UNSPECIFIED') ) ;
#10 = MECHANICAL_CONTEXT ( 'NONE', #97, 'mechanical' ) ;
#11 = CC_DESIGN_APPROVAL ( #192, ( #4 ) ) ;
#12 = ORIENTED_EDGE ( 'NONE', *, *, #190, .F. ) ;
#13 = SECURITY_CLASSIFICATION_LEVEL ( 'unclassified' ) ;
#14 = PERSON_AND_ORGANIZATION_ROLE ( 'design_owner' ) ;
#15 = ORIENTED_EDGE ( 'NONE', *, *, #146, .F. ) ;
#16 = CARTESIAN_POINT ( 'NONE',  ( 12.50000000000000000, 12.49999999999999800, 1.500000000000000000 ) ) ;
#17 = PRODUCT_DEFINITION_FORMATION_WITH_SPECIFIED_SOURCE ( 'ANY', '', #79, .NOT_KNOWN. ) ;
#18 = ORIENTED_EDGE ( 'NONE', *, *, #36, .F. ) ;
#19 = CALENDAR_DATE ( 2017, 13, 7 ) ;
#20 = LINE ( 'NONE', #106, #82 ) ;
#21 = CARTESIAN_POINT ( 'NONE',  ( 12.50000000000000000, -12.50000000000000000, 1.500000000000000000 ) ) ;
#22 = LOCAL_TIME ( 9, 29, 3.000000000000000000, #124 ) ;
#23 = ORIENTED_EDGE ( 'NONE', *, *, #36, .T. ) ;
#24 = DIRECTION ( 'NONE',  ( 0.0000000000000000000, -0.0000000000000000000, 1.000000000000000000 ) ) ;
#25 = ORIENTED_EDGE ( 'NONE', *, *, #152, .T. ) ;
#26 = APPROVAL_ROLE ( '' ) ;
#27 = ADVANCED_BREP_SHAPE_REPRESENTATION ( 'Web Model 46068_46068', ( #201, #222 ), #185 ) ;
#28 = APPROVAL_ROLE ( '' ) ;
#29 = VECTOR ( 'NONE', #3, 1000.000000000000000 ) ;
#30 = ADVANCED_FACE ( 'NONE', ( #92 ), #66, .F. ) ;
#31 = CARTESIAN_POINT ( 'NONE',  ( -12.49999999999999800, -12.50000000000000000, 1.500000000000000000 ) ) ;
#32 = CARTESIAN_POINT ( 'NONE',  ( 12.50000000000000000, -12.50000000000000000, -1.500000000000000000 ) ) ;
#34 = ORIENTED_EDGE ( 'NONE', *, *, #220, .T. ) ;
#33 = DIRECTION ( 'NONE',  ( 0.0000000000000000000, 0.0000000000000000000, -1.000000000000000000 ) ) ;
#35 = ORIENTED_EDGE ( 'NONE', *, *, #206, .T. ) ;
#36 = EDGE_CURVE ( 'NONE', #155, #103, #236, .T. ) ;
#37 = DIRECTION ( 'NONE',  ( 0.0000000000000000000, -0.0000000000000000000, -1.000000000000000000 ) ) ;
#38 = CARTESIAN_POINT ( 'NONE',  ( -12.49999999999999800, -12.50000000000000000, -1.500000000000000000 ) ) ;
#39 = LOCAL_TIME ( 9, 29, 3.000000000000000000, #204 ) ;
#40 = VECTOR ( 'NONE', #144, 1000.000000000000000 ) ;
#41 = PERSON_AND_ORGANIZATION ( #9, #135 ) ;
#42 = ORIENTED_EDGE ( 'NONE', *, *, #49, .T. ) ;
#43 = PLANE ( 'NONE',  #203 ) ;
#44 = DIRECTION ( 'NONE',  ( -0.0000000000000000000, -0.0000000000000000000, -1.000000000000000000 ) ) ;
#45 = PERSON_AND_ORGANIZATION ( #9, #135 ) ;
#46 = LINE ( 'NONE', #219, #29 ) ;
#47 = APPROVAL_STATUS ( 'not_yet_approved' ) ;
#48 = APPROVAL_PERSON_ORGANIZATION ( #186, #159, #168 ) ;
#49 = EDGE_CURVE ( 'NONE', #196, #147, #216, .T. ) ;
#50 = PERSON_AND_ORGANIZATION_ROLE ( 'creator' ) ;
#51 = DATE_AND_TIME ( #19, #63 ) ;
#52 = LINE ( 'NONE', #31, #100 ) ;
#53 = DIRECTION ( 'NONE',  ( 0.0000000000000000000, -1.000000000000000000, 0.0000000000000000000 ) ) ;
#54 = ORIENTED_EDGE ( 'NONE', *, *, #206, .F. ) ;
#55 = DIRECTION ( 'NONE',  ( 1.000000000000000000, 0.0000000000000000000, 0.0000000000000000000 ) ) ;
#56 = CARTESIAN_POINT ( 'NONE',  ( -12.49999999999999800, -12.50000000000000000, 1.500000000000000000 ) ) ;
#57 = DIRECTION ( 'NONE',  ( 0.0000000000000000000, 1.000000000000000000, 0.0000000000000000000 ) ) ;
#58 = EDGE_CURVE ( 'NONE', #60, #155, #208, .T. ) ;
#59 = APPROVAL_DATE_TIME ( #51, #138 ) ;
#60 = VERTEX_POINT ( 'NONE', #84 ) ;
#61 = ADVANCED_FACE ( 'NONE', ( #174 ), #177, .F. ) ;
#62 = PERSON_AND_ORGANIZATION_ROLE ( 'design_supplier' ) ;
#63 = LOCAL_TIME ( 9, 29, 3.000000000000000000, #89 ) ;
#64 = LINE ( 'NONE', #56, #73 ) ;
#65 = EDGE_LOOP ( 'NONE', ( #18, #114, #54, #15 ) ) ;
#66 = PLANE ( 'NONE',  #111 ) ;
#67 = CARTESIAN_POINT ( 'NONE',  ( -12.49999999999999800, 12.49999999999999800, 1.500000000000000000 ) ) ;
#68 = VECTOR ( 'NONE', #44, 1000.000000000000000 ) ;
#69 = EDGE_LOOP ( 'NONE', ( #210, #80, #107, #34 ) ) ;
#70 = CARTESIAN_POINT ( 'NONE',  ( -12.49999999999999800, 12.49999999999999800, 1.500000000000000000 ) ) ;
#71 = PRODUCT_DEFINITION_SHAPE ( 'NONE', 'NONE',  #4 ) ;
#72 = DIRECTION ( 'NONE',  ( 0.0000000000000000000, 0.0000000000000000000, -1.000000000000000000 ) ) ;
#73 = VECTOR ( 'NONE', #105, 1000.000000000000000 ) ;
#74 = ORIENTED_EDGE ( 'NONE', *, *, #190, .T. ) ;
#75 = CARTESIAN_POINT ( 'NONE',  ( 0.0000000000000000000, 0.0000000000000000000, -1.500000000000000000 ) ) ;
#76 = DIRECTION ( 'NONE',  ( -1.000000000000000000, 0.0000000000000000000, -0.0000000000000000000 ) ) ;
#77 = FACE_OUTER_BOUND ( 'NONE', #86, .T. ) ;
#78 = PERSON_AND_ORGANIZATION ( #9, #135 ) ;
#79 = PRODUCT ( 'Web Model 46068_46068', 'Web Model 46068_46068', '', ( #10 ) ) ;
#80 = ORIENTED_EDGE ( 'NONE', *, *, #49, .F. ) ;
#81 = APPROVAL_PERSON_ORGANIZATION ( #150, #138, #28 ) ;
#82 = VECTOR ( 'NONE', #197, 1000.000000000000000 ) ;
#83 = PLANE ( 'NONE',  #104 ) ;
#84 = CARTESIAN_POINT ( 'NONE',  ( -12.49999999999999800, -12.50000000000000000, -1.500000000000000000 ) ) ;
#85 = PERSON_AND_ORGANIZATION ( #9, #135 ) ;
#86 = EDGE_LOOP ( 'NONE', ( #5, #157, #176, #136 ) ) ;
#87 = CARTESIAN_POINT ( 'NONE',  ( -12.49999999999999800, -12.50000000000000000, 1.500000000000000000 ) ) ;
#88 = CARTESIAN_POINT ( 'NONE',  ( -12.49999999999999800, -12.50000000000000000, 1.500000000000000000 ) ) ;
#89 = COORDINATED_UNIVERSAL_TIME_OFFSET ( 5, 0, .BEHIND. ) ;
#90 = LINE ( 'NONE', #122, #153 ) ;
#91 = DIRECTION ( 'NONE',  ( -0.0000000000000000000, -1.000000000000000000, -0.0000000000000000000 ) ) ;
#92 = FACE_OUTER_BOUND ( 'NONE', #69, .T. ) ;
#93 = EDGE_CURVE ( 'NONE', #166, #60, #52, .T. ) ;
#94 = CARTESIAN_POINT ( 'NONE',  ( -12.49999999999999800, -12.50000000000000000, 1.500000000000000000 ) ) ;
#95 = ORIENTED_EDGE ( 'NONE', *, *, #129, .F. ) ;
#96 =( NAMED_UNIT ( * ) SI_UNIT ( $, .STERADIAN. ) SOLID_ANGLE_UNIT ( ) );
#97 = APPLICATION_CONTEXT ( 'configuration controlled 3d designs of mechanical parts and assemblies' ) ;
#98 = APPROVAL_STATUS ( 'not_yet_approved' ) ;
#99 = LOCAL_TIME ( 9, 29, 3.000000000000000000, #130 ) ;
#100 = VECTOR ( 'NONE', #2, 1000.000000000000000 ) ;
#101 = APPLICATION_PROTOCOL_DEFINITION ( 'international standard', 'config_control_design', 1994, #97 ) ;
#102 = APPLICATION_PROTOCOL_DEFINITION ( 'international standard', 'config_control_design', 1994, #116 ) ;
#103 = VERTEX_POINT ( 'NONE', #143 ) ;
#104 = AXIS2_PLACEMENT_3D ( 'NONE', #88, #55, #198 ) ;
#105 = DIRECTION ( 'NONE',  ( 1.000000000000000000, 0.0000000000000000000, 0.0000000000000000000 ) ) ;
#106 = CARTESIAN_POINT ( 'NONE',  ( 12.50000000000000000, -12.50000000000000000, 1.500000000000000000 ) ) ;
#107 = ORIENTED_EDGE ( 'NONE', *, *, #233, .F. ) ;
#108 = CARTESIAN_POINT ( 'NONE',  ( 12.50000000000000000, -12.50000000000000000, 1.500000000000000000 ) ) ;
#109 = DIRECTION ( 'NONE',  ( 0.0000000000000000000, 0.0000000000000000000, 1.000000000000000000 ) ) ;
#110 = CC_DESIGN_APPROVAL ( #159, ( #17 ) ) ;
#111 = AXIS2_PLACEMENT_3D ( 'NONE', #237, #53, #37 ) ;
#112 = DESIGN_CONTEXT ( 'detailed design', #116, 'design' ) ;
#113 = DATE_AND_TIME ( #183, #193 ) ;
#114 = ORIENTED_EDGE ( 'NONE', *, *, #58, .F. ) ;
#115 = CARTESIAN_POINT ( 'NONE',  ( 0.0000000000000000000, 0.0000000000000000000, 0.0000000000000000000 ) ) ;
#116 = APPLICATION_CONTEXT ( 'configuration controlled 3d designs of mechanical parts and assemblies' ) ;
#117 = ORIENTED_EDGE ( 'NONE', *, *, #220, .F. ) ;
#118 = CALENDAR_DATE ( 2017, 13, 7 ) ;
#119 = LINE ( 'NONE', #148, #172 ) ;
#120 = CC_DESIGN_PERSON_AND_ORGANIZATION_ASSIGNMENT ( #171, #62, ( #17 ) ) ;
#121 = DIRECTION ( 'NONE',  ( -0.0000000000000000000, -0.0000000000000000000, -1.000000000000000000 ) ) ;
#122 = CARTESIAN_POINT ( 'NONE',  ( -12.49999999999999800, -12.50000000000000000, 1.500000000000000000 ) ) ;
#123 = DIRECTION ( 'NONE',  ( -1.000000000000000000, -0.0000000000000000000, -0.0000000000000000000 ) ) ;
#124 = COORDINATED_UNIVERSAL_TIME_OFFSET ( 5, 0, .BEHIND. ) ;
#125 = LINE ( 'NONE', #182, #68 ) ;
#126 = CC_DESIGN_DATE_AND_TIME_ASSIGNMENT ( #202, #232, ( #167 ) ) ;
#127 = COORDINATED_UNIVERSAL_TIME_OFFSET ( 5, 0, .BEHIND. ) ;
#128 = ORIENTED_EDGE ( 'NONE', *, *, #233, .T. ) ;
#129 = EDGE_CURVE ( 'NONE', #196, #166, #90, .T. ) ;
#130 = COORDINATED_UNIVERSAL_TIME_OFFSET ( 5, 0, .BEHIND. ) ;
#131 = VECTOR ( 'NONE', #121, 1000.000000000000000 ) ;
#132 = DIRECTION ( 'NONE',  ( -1.000000000000000000, 0.0000000000000000000, 0.0000000000000000000 ) ) ;
#133 = DIRECTION ( 'NONE',  ( -1.000000000000000000, -0.0000000000000000000, -0.0000000000000000000 ) ) ;
#134 = CC_DESIGN_PERSON_AND_ORGANIZATION_ASSIGNMENT ( #78, #50, ( #17 ) ) ;
#135 = ORGANIZATION ( 'UNSPECIFIED', 'UNSPECIFIED', '' ) ;
#136 = ORIENTED_EDGE ( 'NONE', *, *, #93, .T. ) ;
#137 = ADVANCED_FACE ( 'NONE', ( #221 ), #83, .F. ) ;
#138 = APPROVAL ( #47, 'UNSPECIFIED' ) ;
#139 = PERSON_AND_ORGANIZATION_ROLE ( 'creator' ) ;
#140 = LINE ( 'NONE', #1, #7 ) ;
#141 = AXIS2_PLACEMENT_3D ( 'NONE', #160, #33, #217 ) ;
#142 = AXIS2_PLACEMENT_3D ( 'NONE', #75, #72, #76 ) ;
#143 = CARTESIAN_POINT ( 'NONE',  ( 12.50000000000000000, 12.49999999999999800, -1.500000000000000000 ) ) ;
#144 = DIRECTION ( 'NONE',  ( 1.000000000000000000, 0.0000000000000000000, 0.0000000000000000000 ) ) ;
#145 = DIRECTION ( 'NONE',  ( -0.0000000000000000000, -1.000000000000000000, -0.0000000000000000000 ) ) ;
#146 = EDGE_CURVE ( 'NONE', #103, #147, #140, .T. ) ;
#147 = VERTEX_POINT ( 'NONE', #173 ) ;
#148 = CARTESIAN_POINT ( 'NONE',  ( -12.49999999999999800, 12.49999999999999800, 1.500000000000000000 ) ) ;
#149 = DATE_AND_TIME ( #161, #22 ) ;
#150 = PERSON_AND_ORGANIZATION ( #9, #135 ) ;
#151 = EDGE_LOOP ( 'NONE', ( #35, #170, #95, #42 ) ) ;
#152 = EDGE_CURVE ( 'NONE', #230, #155, #20, .T. ) ;
#153 = VECTOR ( 'NONE', #145, 1000.000000000000000 ) ;
#154 = PERSON_AND_ORGANIZATION_ROLE ( 'classification_officer' ) ;
#155 = VERTEX_POINT ( 'NONE', #32 ) ;
#156 = DATE_TIME_ROLE ( 'creation_date' ) ;
#157 = ORIENTED_EDGE ( 'NONE', *, *, #152, .F. ) ;
#158 = VECTOR ( 'NONE', #91, 1000.000000000000000 ) ;
#159 = APPROVAL ( #98, 'UNSPECIFIED' ) ;
#160 = CARTESIAN_POINT ( 'NONE',  ( 0.0000000000000000000, 0.0000000000000000000, 1.500000000000000000 ) ) ;
#161 = CALENDAR_DATE ( 2017, 13, 7 ) ;
#162 = ORIENTED_EDGE ( 'NONE', *, *, #178, .T. ) ;
#163 = AXIS2_PLACEMENT_3D ( 'NONE', #108, #132, #109 ) ;
#164 = PLANE ( 'NONE',  #163 ) ;
#165 = CC_DESIGN_PERSON_AND_ORGANIZATION_ASSIGNMENT ( #6, #154, ( #167 ) ) ;
#166 = VERTEX_POINT ( 'NONE', #87 ) ;
#167 = SECURITY_CLASSIFICATION ( '', '', #13 ) ;
#168 = APPROVAL_ROLE ( '' ) ;
#169 = DIRECTION ( 'NONE',  ( 0.0000000000000000000, 0.0000000000000000000, 1.000000000000000000 ) ) ;
#170 = ORIENTED_EDGE ( 'NONE', *, *, #93, .F. ) ;
#171 = PERSON_AND_ORGANIZATION ( #9, #135 ) ;
#172 = VECTOR ( 'NONE', #133, 1000.000000000000000 ) ;
#173 = CARTESIAN_POINT ( 'NONE',  ( -12.49999999999999800, 12.49999999999999800, -1.500000000000000000 ) ) ;
#174 = FACE_OUTER_BOUND ( 'NONE', #224, .T. ) ;
#175 = CC_DESIGN_APPROVAL ( #138, ( #167 ) ) ;
#176 = ORIENTED_EDGE ( 'NONE', *, *, #178, .F. ) ;
#177 = PLANE ( 'NONE',  #141 ) ;
#178 = EDGE_CURVE ( 'NONE', #166, #230, #64, .T. ) ;
#179 = DATE_AND_TIME ( #118, #39 ) ;
#180 = PLANE ( 'NONE',  #142 ) ;
#181 = CC_DESIGN_SECURITY_CLASSIFICATION ( #167, ( #17 ) ) ;
#182 = CARTESIAN_POINT ( 'NONE',  ( 12.50000000000000000, 12.49999999999999800, 1.500000000000000000 ) ) ;
#183 = CALENDAR_DATE ( 2017, 13, 7 ) ;
#184 = CC_DESIGN_PERSON_AND_ORGANIZATION_ASSIGNMENT ( #85, #14, ( #79 ) ) ;
#185 =( GEOMETRIC_REPRESENTATION_CONTEXT ( 3 ) GLOBAL_UNCERTAINTY_ASSIGNED_CONTEXT ( ( #8 ) ) GLOBAL_UNIT_ASSIGNED_CONTEXT ( ( #225, #209, #96 ) ) REPRESENTATION_CONTEXT ( 'NONE', 'WORKASPACE' ) );
#186 = PERSON_AND_ORGANIZATION ( #9, #135 ) ;
#187 = VECTOR ( 'NONE', #57, 1000.000000000000000 ) ;
#188 = EDGE_LOOP ( 'NONE', ( #23, #117, #12, #25 ) ) ;
#189 = APPROVAL_STATUS ( 'not_yet_approved' ) ;
#190 = EDGE_CURVE ( 'NONE', #230, #200, #46, .T. ) ;
#191 = CARTESIAN_POINT ( 'NONE',  ( 12.50000000000000000, -12.50000000000000000, -1.500000000000000000 ) ) ;
#192 = APPROVAL ( #189, 'UNSPECIFIED' ) ;
#193 = LOCAL_TIME ( 9, 29, 3.000000000000000000, #127 ) ;
#195 = CARTESIAN_POINT ( 'NONE',  ( -12.49999999999999800, -12.50000000000000000, -1.500000000000000000 ) ) ;
#194 = SHAPE_DEFINITION_REPRESENTATION ( #71, #27 ) ;
#196 = VERTEX_POINT ( 'NONE', #70 ) ;
#197 = DIRECTION ( 'NONE',  ( -0.0000000000000000000, -0.0000000000000000000, -1.000000000000000000 ) ) ;
#198 = DIRECTION ( 'NONE',  ( 0.0000000000000000000, 0.0000000000000000000, -1.000000000000000000 ) ) ;
#199 = PRODUCT_RELATED_PRODUCT_CATEGORY ( 'detail', '', ( #79 ) ) ;
#200 = VERTEX_POINT ( 'NONE', #16 ) ;
#201 = MANIFOLD_SOLID_BREP ( 'Boss-Extrude1', #213 ) ;
#202 = DATE_AND_TIME ( #207, #99 ) ;
#203 = AXIS2_PLACEMENT_3D ( 'NONE', #94, #226, #24 ) ;
#204 = COORDINATED_UNIVERSAL_TIME_OFFSET ( 5, 0, .BEHIND. ) ;
#205 = ORIENTED_EDGE ( 'NONE', *, *, #129, .T. ) ;
#206 = EDGE_CURVE ( 'NONE', #147, #60, #218, .T. ) ;
#207 = CALENDAR_DATE ( 2017, 13, 7 ) ;
#208 = LINE ( 'NONE', #195, #40 ) ;
#209 =( NAMED_UNIT ( * ) PLANE_ANGLE_UNIT ( ) SI_UNIT ( $, .RADIAN. ) );
#210 = ORIENTED_EDGE ( 'NONE', *, *, #146, .T. ) ;
#211 = CC_DESIGN_DATE_AND_TIME_ASSIGNMENT ( #179, #156, ( #4 ) ) ;
#212 = ADVANCED_FACE ( 'NONE', ( #223 ), #180, .T. ) ;
#213 = CLOSED_SHELL ( 'NONE', ( #214, #30, #137, #234, #61, #212 ) ) ;
#214 = ADVANCED_FACE ( 'NONE', ( #227 ), #164, .F. ) ;
#215 = APPROVAL_DATE_TIME ( #113, #192 ) ;
#216 = LINE ( 'NONE', #67, #131 ) ;
#217 = DIRECTION ( 'NONE',  ( -1.000000000000000000, 0.0000000000000000000, -0.0000000000000000000 ) ) ;
#218 = LINE ( 'NONE', #38, #158 ) ;
#219 = CARTESIAN_POINT ( 'NONE',  ( 12.50000000000000000, -12.50000000000000000, 1.500000000000000000 ) ) ;
#220 = EDGE_CURVE ( 'NONE', #200, #103, #125, .T. ) ;
#221 = FACE_OUTER_BOUND ( 'NONE', #151, .T. ) ;
#222 = AXIS2_PLACEMENT_3D ( 'NONE', #115, #169, #231 ) ;
#223 = FACE_OUTER_BOUND ( 'NONE', #65, .T. ) ;
#224 = EDGE_LOOP ( 'NONE', ( #74, #128, #205, #162 ) ) ;
#225 =( LENGTH_UNIT ( ) NAMED_UNIT ( * ) SI_UNIT ( .MILLI., .METRE. ) );
#226 = DIRECTION ( 'NONE',  ( 0.0000000000000000000, 1.000000000000000000, 0.0000000000000000000 ) ) ;
#227 = FACE_OUTER_BOUND ( 'NONE', #188, .T. ) ;
#228 = CC_DESIGN_PERSON_AND_ORGANIZATION_ASSIGNMENT ( #45, #139, ( #4 ) ) ;
#229 = APPROVAL_PERSON_ORGANIZATION ( #41, #192, #26 ) ;
#230 = VERTEX_POINT ( 'NONE', #21 ) ;
#231 = DIRECTION ( 'NONE',  ( 1.000000000000000000, 0.0000000000000000000, 0.0000000000000000000 ) ) ;
#232 = DATE_TIME_ROLE ( 'classification_date' ) ;
#233 = EDGE_CURVE ( 'NONE', #200, #196, #119, .T. ) ;
#234 = ADVANCED_FACE ( 'NONE', ( #77 ), #43, .F. ) ;
#235 = APPROVAL_DATE_TIME ( #149, #159 ) ;
#236 = LINE ( 'NONE', #191, #187 ) ;
#237 = CARTESIAN_POINT ( 'NONE',  ( -12.49999999999999800, 12.49999999999999800, 1.500000000000000000 ) ) ;
ENDSEC;
END-ISO-10303-21;
