ISO-10303-21;
HEADER;
FILE_DESCRIPTION (( 'STEP AP203' ),
    '1' );
FILE_NAME ('Web Model 14960_14960.step',
    '2021-06-14T15:12:09',
    ( '' ),
    ( '' ),
    'SwSTEP 2.0',
    'SolidWorks 2018',
    '' );
FILE_SCHEMA (( 'CONFIG_CONTROL_DESIGN' ));
ENDSEC;

DATA;
#1 = DIRECTION ( 'NONE',  ( 1.000000000000000000, 0.000000000000000000, 0.000000000000000000 ) ) ;
#2 = APPROVAL_ROLE ( '' ) ;
#3 = APPLICATION_CONTEXT ( 'configuration controlled 3d designs of mechanical parts and assemblies' ) ;
#4 = CC_DESIGN_APPROVAL ( #166, ( #23 ) ) ;
#5 = CYLINDRICAL_SURFACE ( 'NONE', #43, 7.500000000000000000 ) ;
#6 = AXIS2_PLACEMENT_3D ( 'NONE', #145, #103, #63 ) ;
#7 = CYLINDRICAL_SURFACE ( 'NONE', #120, 7.500000000000000000 ) ;
#8 = PRODUCT_DEFINITION ( 'UNKNOWN', '', #23, #73 ) ;
#9 = LOCAL_TIME ( 11, 12, 9.000000000000000000, #10 ) ;
#10 = COORDINATED_UNIVERSAL_TIME_OFFSET ( 5, 0, .BEHIND. ) ;
#11 = DIRECTION ( 'NONE',  ( -1.000000000000000000, -0.000000000000000000, -0.000000000000000000 ) ) ;
#12 = ORIENTED_EDGE ( 'NONE', *, *, #165, .F. ) ;
#13 = CARTESIAN_POINT ( 'NONE',  ( 1.000000000000000000, 0.000000000000000000, 7.500000000000000000 ) ) ;
#14 = PERSON_AND_ORGANIZATION_ROLE ( 'classification_officer' ) ;
#15 = EDGE_CURVE ( 'NONE', #85, #153, #99, .T. ) ;
#16 = ORIENTED_EDGE ( 'NONE', *, *, #69, .T. ) ;
#17 = PRODUCT_RELATED_PRODUCT_CATEGORY ( 'detail', '', ( #161 ) ) ;
#18 = COORDINATED_UNIVERSAL_TIME_OFFSET ( 5, 0, .BEHIND. ) ;
#19 = ORIENTED_EDGE ( 'NONE', *, *, #172, .T. ) ;
#20 = COORDINATED_UNIVERSAL_TIME_OFFSET ( 5, 0, .BEHIND. ) ;
#21 = ADVANCED_FACE ( 'NONE', ( #78 ), #163, .T. ) ;
#22 = EDGE_CURVE ( 'NONE', #153, #88, #171, .T. ) ;
#23 = PRODUCT_DEFINITION_FORMATION_WITH_SPECIFIED_SOURCE ( 'ANY', '', #161, .NOT_KNOWN. ) ;
#24 = DIRECTION ( 'NONE',  ( 1.000000000000000000, 0.000000000000000000, 0.000000000000000000 ) ) ;
#25 = APPROVAL_ROLE ( '' ) ;
#26 = ORIENTED_EDGE ( 'NONE', *, *, #165, .T. ) ;
#27 = PERSON ( 'UNSPECIFIED', 'UNSPECIFIED', 'UNSPECIFIED', ('UNSPECIFIED'), ('UNSPECIFIED'), ('UNSPECIFIED') ) ;
#28 = APPROVAL_PERSON_ORGANIZATION ( #150, #166, #84 ) ;
#29 = APPROVAL_PERSON_ORGANIZATION ( #65, #41, #2 ) ;
#30 = CC_DESIGN_PERSON_AND_ORGANIZATION_ASSIGNMENT ( #142, #105, ( #161 ) ) ;
#31 = COORDINATED_UNIVERSAL_TIME_OFFSET ( 5, 0, .BEHIND. ) ;
#32 = EDGE_LOOP ( 'NONE', ( #149, #12, #96, #19 ) ) ;
#33 = CC_DESIGN_DATE_AND_TIME_ASSIGNMENT ( #147, #83, ( #52 ) ) ;
#34 = EDGE_LOOP ( 'NONE', ( #160, #62 ) ) ;
#35 = CARTESIAN_POINT ( 'NONE',  ( 1.000000000000000000, 0.000000000000000000, 7.500000000000000000 ) ) ;
#36 = ORGANIZATION ( 'UNSPECIFIED', 'UNSPECIFIED', '' ) ;
#37 = CARTESIAN_POINT ( 'NONE',  ( -1.000000000000000000, 0.000000000000000000, 7.500000000000000000 ) ) ;
#38 = CARTESIAN_POINT ( 'NONE',  ( -1.000000000000000000, 0.000000000000000000, 0.000000000000000000 ) ) ;
#39 = DATE_AND_TIME ( #159, #67 ) ;
#40 = CIRCLE ( 'NONE', #97, 7.500000000000000000 ) ;
#41 = APPROVAL ( #66, 'UNSPECIFIED' ) ;
#42 = CC_DESIGN_PERSON_AND_ORGANIZATION_ASSIGNMENT ( #74, #14, ( #52 ) ) ;
#43 = AXIS2_PLACEMENT_3D ( 'NONE', #121, #49, #125 ) ;
#44 = ORIENTED_EDGE ( 'NONE', *, *, #22, .T. ) ;
#45 = DATE_AND_TIME ( #113, #123 ) ;
#46 = CARTESIAN_POINT ( 'NONE',  ( -1.000000000000000000, 9.184850993605147944E-16, -7.500000000000000000 ) ) ;
#47 = PRODUCT_DEFINITION_SHAPE ( 'NONE', 'NONE',  #8 ) ;
#48 = PERSON_AND_ORGANIZATION ( #27, #36 ) ;
#49 = DIRECTION ( 'NONE',  ( -1.000000000000000000, -0.000000000000000000, -0.000000000000000000 ) ) ;
#50 = DIRECTION ( 'NONE',  ( -1.000000000000000000, -0.000000000000000000, -0.000000000000000000 ) ) ;
#51 = CC_DESIGN_PERSON_AND_ORGANIZATION_ASSIGNMENT ( #155, #91, ( #8 ) ) ;
#52 = SECURITY_CLASSIFICATION ( '', '', #167 ) ;
#53 = DIRECTION ( 'NONE',  ( 1.000000000000000000, 0.000000000000000000, 0.000000000000000000 ) ) ;
#54 = UNCERTAINTY_MEASURE_WITH_UNIT (LENGTH_MEASURE( 1.000000000000000082E-05 ), #169, 'distance_accuracy_value', 'NONE');
#55 = CALENDAR_DATE ( 2021, 14, 6 ) ;
#56 = APPROVAL_STATUS ( 'not_yet_approved' ) ;
#57 = DATE_TIME_ROLE ( 'creation_date' ) ;
#58 = APPROVAL_DATE_TIME ( #126, #41 ) ;
#59 = CIRCLE ( 'NONE', #137, 7.500000000000000000 ) ;
#60 = CC_DESIGN_SECURITY_CLASSIFICATION ( #52, ( #23 ) ) ;
#61 = CARTESIAN_POINT ( 'NONE',  ( 1.000000000000000000, 0.000000000000000000, 0.000000000000000000 ) ) ;
#62 = ORIENTED_EDGE ( 'NONE', *, *, #22, .F. ) ;
#63 = DIRECTION ( 'NONE',  ( 0.000000000000000000, 0.000000000000000000, -1.000000000000000000 ) ) ;
#64 = DIRECTION ( 'NONE',  ( 0.000000000000000000, 0.000000000000000000, -1.000000000000000000 ) ) ;
#65 = PERSON_AND_ORGANIZATION ( #27, #36 ) ;
#66 = APPROVAL_STATUS ( 'not_yet_approved' ) ;
#67 = LOCAL_TIME ( 11, 12, 9.000000000000000000, #18 ) ;
#68 = PERSON_AND_ORGANIZATION_ROLE ( 'design_supplier' ) ;
#69 = EDGE_CURVE ( 'NONE', #85, #114, #111, .T. ) ;
#70 =( NAMED_UNIT ( * ) PLANE_ANGLE_UNIT ( ) SI_UNIT ( $, .RADIAN. ) );
#71 = SHAPE_DEFINITION_REPRESENTATION ( #47, #124 ) ;
#72 = LINE ( 'NONE', #13, #95 ) ;
#73 = DESIGN_CONTEXT ( 'detailed design', #107, 'design' ) ;
#74 = PERSON_AND_ORGANIZATION ( #27, #36 ) ;
#75 = FACE_OUTER_BOUND ( 'NONE', #90, .T. ) ;
#76 = ADVANCED_FACE ( 'NONE', ( #128 ), #130, .F. ) ;
#77 = DIRECTION ( 'NONE',  ( 1.000000000000000000, 0.000000000000000000, 0.000000000000000000 ) ) ;
#78 = FACE_OUTER_BOUND ( 'NONE', #175, .T. ) ;
#79 = DIRECTION ( 'NONE',  ( 0.000000000000000000, 0.000000000000000000, -1.000000000000000000 ) ) ;
#80 = MECHANICAL_CONTEXT ( 'NONE', #3, 'mechanical' ) ;
#81 = DIRECTION ( 'NONE',  ( 0.000000000000000000, 0.000000000000000000, -1.000000000000000000 ) ) ;
#82 =( NAMED_UNIT ( * ) SI_UNIT ( $, .STERADIAN. ) SOLID_ANGLE_UNIT ( ) );
#83 = DATE_TIME_ROLE ( 'classification_date' ) ;
#84 = APPROVAL_ROLE ( '' ) ;
#85 = VERTEX_POINT ( 'NONE', #174 ) ;
#86 = AXIS2_PLACEMENT_3D ( 'NONE', #61, #24, #117 ) ;
#87 = LOCAL_TIME ( 11, 12, 9.000000000000000000, #31 ) ;
#88 = VERTEX_POINT ( 'NONE', #37 ) ;
#89 = EDGE_CURVE ( 'NONE', #114, #88, #72, .T. ) ;
#90 = EDGE_LOOP ( 'NONE', ( #140, #131, #44, #118 ) ) ;
#91 = PERSON_AND_ORGANIZATION_ROLE ( 'creator' ) ;
#92 = CC_DESIGN_PERSON_AND_ORGANIZATION_ASSIGNMENT ( #164, #151, ( #23 ) ) ;
#93 = APPLICATION_PROTOCOL_DEFINITION ( 'international standard', 'config_control_design', 1994, #3 ) ;
#94 = COORDINATED_UNIVERSAL_TIME_OFFSET ( 5, 0, .BEHIND. ) ;
#95 = VECTOR ( 'NONE', #11, 1000.000000000000000 ) ;
#96 = ORIENTED_EDGE ( 'NONE', *, *, #89, .T. ) ;
#97 = AXIS2_PLACEMENT_3D ( 'NONE', #148, #77, #79 ) ;
#98 = CALENDAR_DATE ( 2021, 14, 6 ) ;
#99 = LINE ( 'NONE', #162, #135 ) ;
#100 = APPROVAL_PERSON_ORGANIZATION ( #156, #146, #25 ) ;
#101 = CARTESIAN_POINT ( 'NONE',  ( 1.000000000000000000, 0.000000000000000000, 0.000000000000000000 ) ) ;
#102 = AXIS2_PLACEMENT_3D ( 'NONE', #134, #133, #158 ) ;
#103 = DIRECTION ( 'NONE',  ( 1.000000000000000000, 0.000000000000000000, 0.000000000000000000 ) ) ;
#104 = AXIS2_PLACEMENT_3D ( 'NONE', #138, #136, #53 ) ;
#105 = PERSON_AND_ORGANIZATION_ROLE ( 'design_owner' ) ;
#106 = LOCAL_TIME ( 11, 12, 9.000000000000000000, #94 ) ;
#107 = APPLICATION_CONTEXT ( 'configuration controlled 3d designs of mechanical parts and assemblies' ) ;
#108 = APPROVAL_STATUS ( 'not_yet_approved' ) ;
#109 = CC_DESIGN_APPROVAL ( #146, ( #52 ) ) ;
#110 = AXIS2_PLACEMENT_3D ( 'NONE', #101, #1, #64 ) ;
#111 = CIRCLE ( 'NONE', #110, 7.500000000000000000 ) ;
#112 = APPROVAL_DATE_TIME ( #45, #166 ) ;
#113 = CALENDAR_DATE ( 2021, 14, 6 ) ;
#114 = VERTEX_POINT ( 'NONE', #35 ) ;
#115 = MANIFOLD_SOLID_BREP ( 'Boss-Extrude1', #170 ) ;
#116 = ADVANCED_FACE ( 'NONE', ( #75 ), #7, .T. ) ;
#117 = DIRECTION ( 'NONE',  ( 0.000000000000000000, 0.000000000000000000, -1.000000000000000000 ) ) ;
#118 = ORIENTED_EDGE ( 'NONE', *, *, #89, .F. ) ;
#119 = DIRECTION ( 'NONE',  ( -1.000000000000000000, -0.000000000000000000, -0.000000000000000000 ) ) ;
#120 = AXIS2_PLACEMENT_3D ( 'NONE', #132, #50, #129 ) ;
#121 = CARTESIAN_POINT ( 'NONE',  ( 1.000000000000000000, 0.000000000000000000, 0.000000000000000000 ) ) ;
#122 = DIRECTION ( 'NONE',  ( 1.000000000000000000, 0.000000000000000000, 0.000000000000000000 ) ) ;
#123 = LOCAL_TIME ( 11, 12, 9.000000000000000000, #20 ) ;
#124 = ADVANCED_BREP_SHAPE_REPRESENTATION ( 'Web Model 14960_14960', ( #115, #104 ), #143 ) ;
#125 = DIRECTION ( 'NONE',  ( 0.000000000000000000, 0.000000000000000000, 1.000000000000000000 ) ) ;
#126 = DATE_AND_TIME ( #98, #87 ) ;
#127 = CC_DESIGN_DATE_AND_TIME_ASSIGNMENT ( #157, #57, ( #8 ) ) ;
#128 = FACE_OUTER_BOUND ( 'NONE', #34, .T. ) ;
#129 = DIRECTION ( 'NONE',  ( 0.000000000000000000, 0.000000000000000000, 1.000000000000000000 ) ) ;
#130 = PLANE ( 'NONE',  #102 ) ;
#131 = ORIENTED_EDGE ( 'NONE', *, *, #15, .T. ) ;
#132 = CARTESIAN_POINT ( 'NONE',  ( 1.000000000000000000, 0.000000000000000000, 0.000000000000000000 ) ) ;
#133 = DIRECTION ( 'NONE',  ( 1.000000000000000000, 0.000000000000000000, 0.000000000000000000 ) ) ;
#134 = CARTESIAN_POINT ( 'NONE',  ( -1.000000000000000000, 0.000000000000000000, 0.000000000000000000 ) ) ;
#135 = VECTOR ( 'NONE', #119, 1000.000000000000000 ) ;
#136 = DIRECTION ( 'NONE',  ( 0.000000000000000000, 0.000000000000000000, 1.000000000000000000 ) ) ;
#137 = AXIS2_PLACEMENT_3D ( 'NONE', #38, #122, #81 ) ;
#138 = CARTESIAN_POINT ( 'NONE',  ( 0.000000000000000000, 0.000000000000000000, 0.000000000000000000 ) ) ;
#139 = APPLICATION_PROTOCOL_DEFINITION ( 'international standard', 'config_control_design', 1994, #107 ) ;
#140 = ORIENTED_EDGE ( 'NONE', *, *, #69, .F. ) ;
#141 = CC_DESIGN_PERSON_AND_ORGANIZATION_ASSIGNMENT ( #48, #68, ( #23 ) ) ;
#142 = PERSON_AND_ORGANIZATION ( #27, #36 ) ;
#143 =( GEOMETRIC_REPRESENTATION_CONTEXT ( 3 ) GLOBAL_UNCERTAINTY_ASSIGNED_CONTEXT ( ( #54 ) ) GLOBAL_UNIT_ASSIGNED_CONTEXT ( ( #169, #70, #82 ) ) REPRESENTATION_CONTEXT ( 'NONE', 'WORKASPACE' ) );
#144 = FACE_OUTER_BOUND ( 'NONE', #32, .T. ) ;
#145 = CARTESIAN_POINT ( 'NONE',  ( -1.000000000000000000, 0.000000000000000000, 0.000000000000000000 ) ) ;
#146 = APPROVAL ( #108, 'UNSPECIFIED' ) ;
#147 = DATE_AND_TIME ( #55, #106 ) ;
#148 = CARTESIAN_POINT ( 'NONE',  ( 1.000000000000000000, 0.000000000000000000, 0.000000000000000000 ) ) ;
#149 = ORIENTED_EDGE ( 'NONE', *, *, #15, .F. ) ;
#150 = PERSON_AND_ORGANIZATION ( #27, #36 ) ;
#151 = PERSON_AND_ORGANIZATION_ROLE ( 'creator' ) ;
#152 = CALENDAR_DATE ( 2021, 14, 6 ) ;
#153 = VERTEX_POINT ( 'NONE', #46 ) ;
#154 = CC_DESIGN_APPROVAL ( #41, ( #8 ) ) ;
#155 = PERSON_AND_ORGANIZATION ( #27, #36 ) ;
#156 = PERSON_AND_ORGANIZATION ( #27, #36 ) ;
#157 = DATE_AND_TIME ( #152, #9 ) ;
#158 = DIRECTION ( 'NONE',  ( 0.000000000000000000, 0.000000000000000000, -1.000000000000000000 ) ) ;
#159 = CALENDAR_DATE ( 2021, 14, 6 ) ;
#160 = ORIENTED_EDGE ( 'NONE', *, *, #172, .F. ) ;
#161 = PRODUCT ( 'Web Model 14960_14960', 'Web Model 14960_14960', '', ( #80 ) ) ;
#162 = CARTESIAN_POINT ( 'NONE',  ( 1.000000000000000000, 9.184850993605147944E-16, -7.500000000000000000 ) ) ;
#163 = PLANE ( 'NONE',  #86 ) ;
#164 = PERSON_AND_ORGANIZATION ( #27, #36 ) ;
#165 = EDGE_CURVE ( 'NONE', #114, #85, #40, .T. ) ;
#166 = APPROVAL ( #56, 'UNSPECIFIED' ) ;
#167 = SECURITY_CLASSIFICATION_LEVEL ( 'unclassified' ) ;
#168 = APPROVAL_DATE_TIME ( #39, #146 ) ;
#169 =( LENGTH_UNIT ( ) NAMED_UNIT ( * ) SI_UNIT ( .MILLI., .METRE. ) );
#170 = CLOSED_SHELL ( 'NONE', ( #116, #173, #21, #76 ) ) ;
#171 = CIRCLE ( 'NONE', #6, 7.500000000000000000 ) ;
#172 = EDGE_CURVE ( 'NONE', #88, #153, #59, .T. ) ;
#173 = ADVANCED_FACE ( 'NONE', ( #144 ), #5, .T. ) ;
#174 = CARTESIAN_POINT ( 'NONE',  ( 1.000000000000000000, 9.184850993605147944E-16, -7.500000000000000000 ) ) ;
#175 = EDGE_LOOP ( 'NONE', ( #26, #16 ) ) ;
ENDSEC;
END-ISO-10303-21;
