ISO-10303-21;
HEADER;
FILE_DESCRIPTION (( 'STEP AP203' ),
    '1' );
FILE_NAME ('Web Model 49155_49237.step',
    '2017-04-19T17:04:29',
    ( '' ),
    ( '' ),
    'SwSTEP 2.0',
    'SolidWorks 2016',
    '' );
FILE_SCHEMA (( 'CONFIG_CONTROL_DESIGN' ));
ENDSEC;

DATA;
#1 = APPROVAL_DATE_TIME ( #88, #65 ) ;
#2 = APPROVAL_DATE_TIME ( #63, #18 ) ;
#3 = PERSON_AND_ORGANIZATION ( #74, #143 ) ;
#4 = CC_DESIGN_SECURITY_CLASSIFICATION ( #38, ( #69 ) ) ;
#5 = APPLICATION_PROTOCOL_DEFINITION ( 'international standard', 'config_control_design', 1994, #56 ) ;
#6 = VECTOR ( 'NONE', #165, 1000.000000000000000 ) ;
#7 = CARTESIAN_POINT ( 'NONE',  ( 25.00000000000000000, 3.061616997868383000E-015, 0.8000000000000000400 ) ) ;
#8 = CYLINDRICAL_SURFACE ( 'NONE', #27, 25.00000000000000000 ) ;
#9 = CARTESIAN_POINT ( 'NONE',  ( 0.0000000000000000000, 0.0000000000000000000, 0.8000000000000000400 ) ) ;
#10 = COORDINATED_UNIVERSAL_TIME_OFFSET ( 5, 0, .BEHIND. ) ;
#11 = CALENDAR_DATE ( 2017, 19, 4 ) ;
#12 = CC_DESIGN_APPROVAL ( #18, ( #38 ) ) ;
#13 = LINE ( 'NONE', #7, #91 ) ;
#14 = DIRECTION ( 'NONE',  ( 1.000000000000000000, 0.0000000000000000000, -0.0000000000000000000 ) ) ;
#15 = LOCAL_TIME ( 13, 4, 29.00000000000000000, #155 ) ;
#16 = DIRECTION ( 'NONE',  ( 1.000000000000000000, 0.0000000000000000000, -0.0000000000000000000 ) ) ;
#17 = CALENDAR_DATE ( 2017, 19, 4 ) ;
#18 = APPROVAL ( #150, 'UNSPECIFIED' ) ;
#19 =( LENGTH_UNIT ( ) NAMED_UNIT ( * ) SI_UNIT ( .MILLI., .METRE. ) );
#20 = PLANE ( 'NONE',  #23 ) ;
#21 = PERSON_AND_ORGANIZATION_ROLE ( 'creator' ) ;
#22 = CIRCLE ( 'NONE', #60, 25.00000000000000000 ) ;
#23 = AXIS2_PLACEMENT_3D ( 'NONE', #9, #106, #16 ) ;
#24 = PRODUCT ( 'Web Model 49155_49237', 'Web Model 49155_49237', '', ( #98 ) ) ;
#25 = CIRCLE ( 'NONE', #161, 25.00000000000000000 ) ;
#26 = UNCERTAINTY_MEASURE_WITH_UNIT (LENGTH_MEASURE( 1.000000000000000100E-005 ), #19, 'distance_accuracy_value', 'NONE');
#27 = AXIS2_PLACEMENT_3D ( 'NONE', #146, #39, #64 ) ;
#28 = ORIENTED_EDGE ( 'NONE', *, *, #157, .F. ) ;
#29 = VERTEX_POINT ( 'NONE', #167 ) ;
#30 = LOCAL_TIME ( 13, 4, 29.00000000000000000, #92 ) ;
#31 = SECURITY_CLASSIFICATION_LEVEL ( 'unclassified' ) ;
#32 = CC_DESIGN_DATE_AND_TIME_ASSIGNMENT ( #117, #85, ( #38 ) ) ;
#33 = ADVANCED_FACE ( 'NONE', ( #126 ), #103, .T. ) ;
#34 = PERSON_AND_ORGANIZATION_ROLE ( 'design_owner' ) ;
#35 = CC_DESIGN_PERSON_AND_ORGANIZATION_ASSIGNMENT ( #40, #66, ( #38 ) ) ;
#36 = DIRECTION ( 'NONE',  ( 1.000000000000000000, 0.0000000000000000000, 0.0000000000000000000 ) ) ;
#37 = ORIENTED_EDGE ( 'NONE', *, *, #140, .F. ) ;
#38 = SECURITY_CLASSIFICATION ( '', '', #31 ) ;
#39 = DIRECTION ( 'NONE',  ( -0.0000000000000000000, -0.0000000000000000000, -1.000000000000000000 ) ) ;
#40 = PERSON_AND_ORGANIZATION ( #74, #143 ) ;
#41 = DIRECTION ( 'NONE',  ( 0.0000000000000000000, 0.0000000000000000000, 1.000000000000000000 ) ) ;
#42 = APPROVAL_ROLE ( '' ) ;
#43 = ADVANCED_FACE ( 'NONE', ( #73 ), #120, .F. ) ;
#44 = APPLICATION_CONTEXT ( 'configuration controlled 3d designs of mechanical parts and assemblies' ) ;
#45 = DIRECTION ( 'NONE',  ( 1.000000000000000000, 0.0000000000000000000, 0.0000000000000000000 ) ) ;
#46 = CC_DESIGN_PERSON_AND_ORGANIZATION_ASSIGNMENT ( #109, #110, ( #69 ) ) ;
#47 = CC_DESIGN_PERSON_AND_ORGANIZATION_ASSIGNMENT ( #3, #55, ( #69 ) ) ;
#48 = ORIENTED_EDGE ( 'NONE', *, *, #136, .T. ) ;
#49 = PRODUCT_DEFINITION_SHAPE ( 'NONE', 'NONE',  #77 ) ;
#50 = DIRECTION ( 'NONE',  ( 1.000000000000000000, 0.0000000000000000000, 0.0000000000000000000 ) ) ;
#51 = PERSON_AND_ORGANIZATION ( #74, #143 ) ;
#52 = CARTESIAN_POINT ( 'NONE',  ( 0.0000000000000000000, 0.0000000000000000000, -0.8000000000000000400 ) ) ;
#53 = CARTESIAN_POINT ( 'NONE',  ( 0.0000000000000000000, 0.0000000000000000000, 0.8000000000000000400 ) ) ;
#54 = CC_DESIGN_APPROVAL ( #65, ( #69 ) ) ;
#55 = PERSON_AND_ORGANIZATION_ROLE ( 'creator' ) ;
#56 = APPLICATION_CONTEXT ( 'configuration controlled 3d designs of mechanical parts and assemblies' ) ;
#57 = CARTESIAN_POINT ( 'NONE',  ( 0.0000000000000000000, 0.0000000000000000000, -0.8000000000000000400 ) ) ;
#58 = CARTESIAN_POINT ( 'NONE',  ( 25.00000000000000000, 3.061616997868383000E-015, -0.8000000000000000400 ) ) ;
#59 = CIRCLE ( 'NONE', #61, 25.00000000000000000 ) ;
#60 = AXIS2_PLACEMENT_3D ( 'NONE', #53, #118, #93 ) ;
#61 = AXIS2_PLACEMENT_3D ( 'NONE', #62, #125, #45 ) ;
#62 = CARTESIAN_POINT ( 'NONE',  ( 0.0000000000000000000, 0.0000000000000000000, 0.8000000000000000400 ) ) ;
#63 = DATE_AND_TIME ( #128, #30 ) ;
#64 = DIRECTION ( 'NONE',  ( -1.000000000000000000, 0.0000000000000000000, 0.0000000000000000000 ) ) ;
#65 = APPROVAL ( #119, 'UNSPECIFIED' ) ;
#66 = PERSON_AND_ORGANIZATION_ROLE ( 'classification_officer' ) ;
#67 = APPLICATION_PROTOCOL_DEFINITION ( 'international standard', 'config_control_design', 1994, #44 ) ;
#68 = VERTEX_POINT ( 'NONE', #108 ) ;
#69 = PRODUCT_DEFINITION_FORMATION_WITH_SPECIFIED_SOURCE ( 'ANY', '', #24, .NOT_KNOWN. ) ;
#70 = CLOSED_SHELL ( 'NONE', ( #97, #33, #151, #43 ) ) ;
#71 = CC_DESIGN_DATE_AND_TIME_ASSIGNMENT ( #171, #172, ( #77 ) ) ;
#72 = APPROVAL_PERSON_ORGANIZATION ( #139, #101, #100 ) ;
#73 = FACE_OUTER_BOUND ( 'NONE', #169, .T. ) ;
#74 = PERSON ( 'UNSPECIFIED', 'UNSPECIFIED', 'UNSPECIFIED', ('UNSPECIFIED'), ('UNSPECIFIED'), ('UNSPECIFIED') ) ;
#75 = EDGE_LOOP ( 'NONE', ( #137, #48 ) ) ;
#76 = CARTESIAN_POINT ( 'NONE',  ( -25.00000000000000000, 0.0000000000000000000, 0.8000000000000000400 ) ) ;
#77 = PRODUCT_DEFINITION ( 'UNKNOWN', '', #69, #163 ) ;
#78 = DIRECTION ( 'NONE',  ( 0.0000000000000000000, 0.0000000000000000000, 1.000000000000000000 ) ) ;
#79 = LOCAL_TIME ( 13, 4, 29.00000000000000000, #148 ) ;
#80 = DIRECTION ( 'NONE',  ( 0.0000000000000000000, 0.0000000000000000000, 1.000000000000000000 ) ) ;
#81 = APPROVAL_STATUS ( 'not_yet_approved' ) ;
#82 = AXIS2_PLACEMENT_3D ( 'NONE', #52, #78, #14 ) ;
#83 =( NAMED_UNIT ( * ) SI_UNIT ( $, .STERADIAN. ) SOLID_ANGLE_UNIT ( ) );
#84 = ORIENTED_EDGE ( 'NONE', *, *, #144, .T. ) ;
#85 = DATE_TIME_ROLE ( 'classification_date' ) ;
#86 = CC_DESIGN_APPROVAL ( #101, ( #77 ) ) ;
#87 = CIRCLE ( 'NONE', #90, 25.00000000000000000 ) ;
#88 = DATE_AND_TIME ( #11, #15 ) ;
#89 = LINE ( 'NONE', #76, #6 ) ;
#90 = AXIS2_PLACEMENT_3D ( 'NONE', #170, #80, #96 ) ;
#91 = VECTOR ( 'NONE', #145, 1000.000000000000000 ) ;
#92 = COORDINATED_UNIVERSAL_TIME_OFFSET ( 5, 0, .BEHIND. ) ;
#93 = DIRECTION ( 'NONE',  ( 1.000000000000000000, 0.0000000000000000000, 0.0000000000000000000 ) ) ;
#94 = DIRECTION ( 'NONE',  ( -1.000000000000000000, 0.0000000000000000000, 0.0000000000000000000 ) ) ;
#95 =( GEOMETRIC_REPRESENTATION_CONTEXT ( 3 ) GLOBAL_UNCERTAINTY_ASSIGNED_CONTEXT ( ( #26 ) ) GLOBAL_UNIT_ASSIGNED_CONTEXT ( ( #19, #123, #83 ) ) REPRESENTATION_CONTEXT ( 'NONE', 'WORKASPACE' ) );
#96 = DIRECTION ( 'NONE',  ( 1.000000000000000000, 0.0000000000000000000, 0.0000000000000000000 ) ) ;
#97 = ADVANCED_FACE ( 'NONE', ( #115 ), #8, .T. ) ;
#98 = MECHANICAL_CONTEXT ( 'NONE', #56, 'mechanical' ) ;
#99 = MANIFOLD_SOLID_BREP ( 'Boss-Extrude1', #70 ) ;
#100 = APPROVAL_ROLE ( '' ) ;
#101 = APPROVAL ( #81, 'UNSPECIFIED' ) ;
#102 = EDGE_LOOP ( 'NONE', ( #131, #28, #127, #141 ) ) ;
#103 = CYLINDRICAL_SURFACE ( 'NONE', #174, 25.00000000000000000 ) ;
#104 = AXIS2_PLACEMENT_3D ( 'NONE', #149, #41, #36 ) ;
#105 = FACE_OUTER_BOUND ( 'NONE', #75, .T. ) ;
#106 = DIRECTION ( 'NONE',  ( 0.0000000000000000000, 0.0000000000000000000, 1.000000000000000000 ) ) ;
#107 = CC_DESIGN_PERSON_AND_ORGANIZATION_ASSIGNMENT ( #160, #21, ( #77 ) ) ;
#108 = CARTESIAN_POINT ( 'NONE',  ( 25.00000000000000000, 3.061616997868383000E-015, 0.8000000000000000400 ) ) ;
#109 = PERSON_AND_ORGANIZATION ( #74, #143 ) ;
#110 = PERSON_AND_ORGANIZATION_ROLE ( 'design_supplier' ) ;
#111 = PERSON_AND_ORGANIZATION ( #74, #143 ) ;
#112 = PRODUCT_RELATED_PRODUCT_CATEGORY ( 'detail', '', ( #24 ) ) ;
#113 = CARTESIAN_POINT ( 'NONE',  ( -25.00000000000000000, 0.0000000000000000000, 0.8000000000000000400 ) ) ;
#114 = CC_DESIGN_PERSON_AND_ORGANIZATION_ASSIGNMENT ( #152, #34, ( #24 ) ) ;
#115 = FACE_OUTER_BOUND ( 'NONE', #116, .T. ) ;
#116 = EDGE_LOOP ( 'NONE', ( #175, #135, #84, #37 ) ) ;
#117 = DATE_AND_TIME ( #17, #79 ) ;
#118 = DIRECTION ( 'NONE',  ( 0.0000000000000000000, 0.0000000000000000000, 1.000000000000000000 ) ) ;
#119 = APPROVAL_STATUS ( 'not_yet_approved' ) ;
#120 = PLANE ( 'NONE',  #82 ) ;
#121 = ORIENTED_EDGE ( 'NONE', *, *, #144, .F. ) ;
#122 = APPROVAL_ROLE ( '' ) ;
#123 =( NAMED_UNIT ( * ) PLANE_ANGLE_UNIT ( ) SI_UNIT ( $, .RADIAN. ) );
#124 = VERTEX_POINT ( 'NONE', #113 ) ;
#125 = DIRECTION ( 'NONE',  ( 0.0000000000000000000, 0.0000000000000000000, 1.000000000000000000 ) ) ;
#126 = FACE_OUTER_BOUND ( 'NONE', #102, .T. ) ;
#127 = ORIENTED_EDGE ( 'NONE', *, *, #140, .T. ) ;
#128 = CALENDAR_DATE ( 2017, 19, 4 ) ;
#129 = DIRECTION ( 'NONE',  ( -0.0000000000000000000, -0.0000000000000000000, -1.000000000000000000 ) ) ;
#130 = VERTEX_POINT ( 'NONE', #58 ) ;
#131 = ORIENTED_EDGE ( 'NONE', *, *, #132, .F. ) ;
#132 = EDGE_CURVE ( 'NONE', #68, #130, #13, .T. ) ;
#133 = SHAPE_DEFINITION_REPRESENTATION ( #49, #138 ) ;
#134 = DIRECTION ( 'NONE',  ( 0.0000000000000000000, 0.0000000000000000000, 1.000000000000000000 ) ) ;
#135 = ORIENTED_EDGE ( 'NONE', *, *, #132, .T. ) ;
#136 = EDGE_CURVE ( 'NONE', #68, #124, #59, .T. ) ;
#137 = ORIENTED_EDGE ( 'NONE', *, *, #157, .T. ) ;
#138 = ADVANCED_BREP_SHAPE_REPRESENTATION ( 'Web Model 49155_49237', ( #99, #104 ), #95 ) ;
#139 = PERSON_AND_ORGANIZATION ( #74, #143 ) ;
#140 = EDGE_CURVE ( 'NONE', #124, #29, #89, .T. ) ;
#141 = ORIENTED_EDGE ( 'NONE', *, *, #158, .T. ) ;
#142 = ORIENTED_EDGE ( 'NONE', *, *, #158, .F. ) ;
#143 = ORGANIZATION ( 'UNSPECIFIED', 'UNSPECIFIED', '' ) ;
#144 = EDGE_CURVE ( 'NONE', #130, #29, #25, .T. ) ;
#145 = DIRECTION ( 'NONE',  ( -0.0000000000000000000, -0.0000000000000000000, -1.000000000000000000 ) ) ;
#146 = CARTESIAN_POINT ( 'NONE',  ( 0.0000000000000000000, 0.0000000000000000000, 0.8000000000000000400 ) ) ;
#147 = CARTESIAN_POINT ( 'NONE',  ( 0.0000000000000000000, 0.0000000000000000000, 0.8000000000000000400 ) ) ;
#148 = COORDINATED_UNIVERSAL_TIME_OFFSET ( 5, 0, .BEHIND. ) ;
#149 = CARTESIAN_POINT ( 'NONE',  ( 0.0000000000000000000, 0.0000000000000000000, 0.0000000000000000000 ) ) ;
#150 = APPROVAL_STATUS ( 'not_yet_approved' ) ;
#151 = ADVANCED_FACE ( 'NONE', ( #105 ), #20, .T. ) ;
#152 = PERSON_AND_ORGANIZATION ( #74, #143 ) ;
#153 = LOCAL_TIME ( 13, 4, 29.00000000000000000, #10 ) ;
#154 = CALENDAR_DATE ( 2017, 19, 4 ) ;
#155 = COORDINATED_UNIVERSAL_TIME_OFFSET ( 5, 0, .BEHIND. ) ;
#156 = DATE_AND_TIME ( #154, #153 ) ;
#157 = EDGE_CURVE ( 'NONE', #124, #68, #22, .T. ) ;
#158 = EDGE_CURVE ( 'NONE', #29, #130, #87, .T. ) ;
#159 = APPROVAL_DATE_TIME ( #156, #101 ) ;
#160 = PERSON_AND_ORGANIZATION ( #74, #143 ) ;
#161 = AXIS2_PLACEMENT_3D ( 'NONE', #57, #134, #50 ) ;
#162 = COORDINATED_UNIVERSAL_TIME_OFFSET ( 5, 0, .BEHIND. ) ;
#163 = DESIGN_CONTEXT ( 'detailed design', #44, 'design' ) ;
#164 = LOCAL_TIME ( 13, 4, 29.00000000000000000, #162 ) ;
#165 = DIRECTION ( 'NONE',  ( -0.0000000000000000000, -0.0000000000000000000, -1.000000000000000000 ) ) ;
#166 = CALENDAR_DATE ( 2017, 19, 4 ) ;
#167 = CARTESIAN_POINT ( 'NONE',  ( -25.00000000000000000, 0.0000000000000000000, -0.8000000000000000400 ) ) ;
#168 = APPROVAL_PERSON_ORGANIZATION ( #51, #18, #42 ) ;
#169 = EDGE_LOOP ( 'NONE', ( #142, #121 ) ) ;
#170 = CARTESIAN_POINT ( 'NONE',  ( 0.0000000000000000000, 0.0000000000000000000, -0.8000000000000000400 ) ) ;
#171 = DATE_AND_TIME ( #166, #164 ) ;
#172 = DATE_TIME_ROLE ( 'creation_date' ) ;
#173 = APPROVAL_PERSON_ORGANIZATION ( #111, #65, #122 ) ;
#174 = AXIS2_PLACEMENT_3D ( 'NONE', #147, #129, #94 ) ;
#175 = ORIENTED_EDGE ( 'NONE', *, *, #136, .F. ) ;
ENDSEC;
END-ISO-10303-21;
