ISO-10303-21;
HEADER;
FILE_DESCRIPTION (( 'STEP AP203' ),
    '1' );
FILE_NAME ('4312-E0W.STEP',
    '2015-06-17T20:43:52',
    ( 'admin' ),
    ( '' ),
    'SwSTEP 2.0',
    'SolidWorks 2014',
    '' );
FILE_SCHEMA (( 'CONFIG_CONTROL_DESIGN' ));
ENDSEC;

DATA;
#1 = DIRECTION ( 'NONE',  ( -0.0000000000000000000, -0.0000000000000000000, 1.000000000000000000 ) ) ;
#2 = CARTESIAN_POINT ( 'NONE',  ( -7.480264878237383500E-016, -6.108099807589775700, -0.9526725302671130700 ) ) ;
#3 = PRODUCT_DEFINITION_FORMATION_WITH_SPECIFIED_SOURCE ( 'ANY', '', #129, .NOT_KNOWN. ) ;
#4 = ORIENTED_EDGE ( 'NONE', *, *, #74, .F. ) ;
#5 = ORIENTED_EDGE ( 'NONE', *, *, #12, .T. ) ;
#6 = CIRCLE ( 'NONE', #153, 6.108099807589784500 ) ;
#7 = EDGE_CURVE ( 'NONE', #313, #21, #257, .T. ) ;
#8 = LINE ( 'NONE', #69, #350 ) ;
#9 = ORGANIZATION ( 'UNSPECIFIED', 'UNSPECIFIED', '' ) ;
#10 = CARTESIAN_POINT ( 'NONE',  ( -6.108099807589785400, 0.0000000000000000000, 0.9526725302671130700 ) ) ;
#11 = APPROVAL_ROLE ( '' ) ;
#12 = EDGE_CURVE ( 'NONE', #134, #21, #59, .T. ) ;
#13 = CIRCLE ( 'NONE', #356, 6.108099807589784500 ) ;
#14 = CARTESIAN_POINT ( 'NONE',  ( 0.0000000000000000000, 6.108099807589776600, 0.9526725302671130700 ) ) ;
#15 = EDGE_LOOP ( 'NONE', ( #141, #297, #158, #345, #144 ) ) ;
#16 = ORIENTED_EDGE ( 'NONE', *, *, #70, .T. ) ;
#17 = PERSON_AND_ORGANIZATION_ROLE ( 'design_owner' ) ;
#18 = EDGE_CURVE ( 'NONE', #221, #242, #155, .T. ) ;
#19 =( NAMED_UNIT ( * ) SI_UNIT ( $, .STERADIAN. ) SOLID_ANGLE_UNIT ( ) );
#20 = CC_DESIGN_APPROVAL ( #251, ( #365 ) ) ;
#21 = VERTEX_POINT ( 'NONE', #92 ) ;
#22 = ORIENTED_EDGE ( 'NONE', *, *, #124, .F. ) ;
#23 = FACE_OUTER_BOUND ( 'NONE', #185, .T. ) ;
#24 = DIRECTION ( 'NONE',  ( -0.6187417299756697900, 7.577400791135998900E-017, 0.7855944701859320900 ) ) ;
#25 = DIRECTION ( 'NONE',  ( 1.000000000000000000, 0.0000000000000000000, 0.0000000000000000000 ) ) ;
#26 = LOCAL_TIME ( 16, 43, 52.00000000000000000, #52 ) ;
#27 = APPROVAL_PERSON_ORGANIZATION ( #217, #340, #83 ) ;
#28 = ORIENTED_EDGE ( 'NONE', *, *, #103, .T. ) ;
#29 = CC_DESIGN_APPROVAL ( #120, ( #3 ) ) ;
#30 = DIRECTION ( 'NONE',  ( -0.0000000000000000000, -0.0000000000000000000, 1.000000000000000000 ) ) ;
#31 = DIRECTION ( 'NONE',  ( 0.0000000000000000000, 0.0000000000000000000, -1.000000000000000000 ) ) ;
#32 = CARTESIAN_POINT ( 'NONE',  ( 0.0000000000000000000, 0.0000000000000000000, -0.6455404195852415500 ) ) ;
#33 = EDGE_CURVE ( 'NONE', #21, #108, #57, .T. ) ;
#34 = CARTESIAN_POINT ( 'NONE',  ( -6.108099807589785400, 7.628386026411543700E-016, -0.9526725302671130700 ) ) ;
#35 = LOCAL_TIME ( 16, 43, 52.00000000000000000, #283 ) ;
#36 = ORIENTED_EDGE ( 'NONE', *, *, #33, .T. ) ;
#37 = DIRECTION ( 'NONE',  ( 1.000000000000000000, 0.0000000000000000000, 0.0000000000000000000 ) ) ;
#38 = EDGE_CURVE ( 'NONE', #108, #21, #206, .T. ) ;
#39 = ORIENTED_EDGE ( 'NONE', *, *, #124, .T. ) ;
#40 = DIRECTION ( 'NONE',  ( 1.000000000000000000, 0.0000000000000000000, 0.0000000000000000000 ) ) ;
#41 = EDGE_CURVE ( 'NONE', #205, #221, #324, .T. ) ;
#42 = CIRCLE ( 'NONE', #347, 6.108099807589785400 ) ;
#43 = ORIENTED_EDGE ( 'NONE', *, *, #44, .F. ) ;
#44 = EDGE_CURVE ( 'NONE', #335, #166, #6, .T. ) ;
#45 = DIRECTION ( 'NONE',  ( -0.0000000000000000000, -0.0000000000000000000, 1.000000000000000000 ) ) ;
#46 = CARTESIAN_POINT ( 'NONE',  ( 0.0000000000000000000, 0.0000000000000000000, 0.9526725302671130700 ) ) ;
#47 = EDGE_CURVE ( 'NONE', #313, #189, #252, .T. ) ;
#48 = VERTEX_POINT ( 'NONE', #150 ) ;
#49 = VECTOR ( 'NONE', #245, 1000.000000000000100 ) ;
#50 = DIRECTION ( 'NONE',  ( -1.000000000000000000, 0.0000000000000000000, 0.0000000000000000000 ) ) ;
#51 = CARTESIAN_POINT ( 'NONE',  ( 0.0000000000000000000, 0.0000000000000000000, 0.6455404195852415500 ) ) ;
#52 = COORDINATED_UNIVERSAL_TIME_OFFSET ( 5, 0, .BEHIND. ) ;
#53 = CARTESIAN_POINT ( 'NONE',  ( 0.0000000000000000000, 6.108099807589775700, -0.9526725302671130700 ) ) ;
#54 = DIRECTION ( 'NONE',  ( -0.0000000000000000000, -0.0000000000000000000, 1.000000000000000000 ) ) ;
#55 = APPLICATION_PROTOCOL_DEFINITION ( 'international standard', 'config_control_design', 1994, #353 ) ;
#56 =( NAMED_UNIT ( * ) PLANE_ANGLE_UNIT ( ) SI_UNIT ( $, .RADIAN. ) );
#57 = CIRCLE ( 'NONE', #327, 6.349999999999999600 ) ;
#58 = EDGE_CURVE ( 'NONE', #184, #166, #197, .T. ) ;
#59 = LINE ( 'NONE', #285, #363 ) ;
#60 = LINE ( 'NONE', #244, #182 ) ;
#61 = DIRECTION ( 'NONE',  ( -1.000000000000000000, 0.0000000000000000000, 0.0000000000000000000 ) ) ;
#62 = APPROVAL_PERSON_ORGANIZATION ( #104, #120, #343 ) ;
#63 = AXIS2_PLACEMENT_3D ( 'NONE', #112, #45, #72 ) ;
#64 = ORIENTED_EDGE ( 'NONE', *, *, #7, .T. ) ;
#65 = AXIS2_PLACEMENT_3D ( 'NONE', #154, #80, #100 ) ;
#66 = ORIENTED_EDGE ( 'NONE', *, *, #173, .F. ) ;
#67 = ORIENTED_EDGE ( 'NONE', *, *, #38, .F. ) ;
#68 = EDGE_CURVE ( 'NONE', #88, #328, #13, .T. ) ;
#69 = CARTESIAN_POINT ( 'NONE',  ( -6.349999999999999600, 7.776507174585692200E-016, 1.649999999999999900 ) ) ;
#70 = EDGE_CURVE ( 'NONE', #189, #242, #106, .T. ) ;
#71 = CARTESIAN_POINT ( 'NONE',  ( 0.0000000000000000000, 0.0000000000000000000, 25.45000000000000300 ) ) ;
#72 = DIRECTION ( 'NONE',  ( 1.000000000000000000, 0.0000000000000000000, 0.0000000000000000000 ) ) ;
#73 = ORIENTED_EDGE ( 'NONE', *, *, #58, .F. ) ;
#74 = EDGE_CURVE ( 'NONE', #335, #134, #190, .T. ) ;
#75 = CIRCLE ( 'NONE', #344, 6.108099807589784500 ) ;
#76 = DIRECTION ( 'NONE',  ( 1.000000000000000000, 0.0000000000000000000, 0.0000000000000000000 ) ) ;
#77 = COORDINATED_UNIVERSAL_TIME_OFFSET ( 5, 0, .BEHIND. ) ;
#78 = EDGE_CURVE ( 'NONE', #184, #328, #226, .T. ) ;
#79 = ADVANCED_FACE ( 'NONE', ( #161 ), #179, .T. ) ;
#80 = DIRECTION ( 'NONE',  ( -1.000000000000000000, 0.0000000000000000000, 0.0000000000000000000 ) ) ;
#81 = CARTESIAN_POINT ( 'NONE',  ( 0.0000000000000000000, 0.0000000000000000000, -25.45000000000000300 ) ) ;
#82 = APPLICATION_CONTEXT ( 'configuration controlled 3d designs of mechanical parts and assemblies' ) ;
#83 = APPROVAL_ROLE ( '' ) ;
#84 = EDGE_CURVE ( 'NONE', #88, #48, #60, .T. ) ;
#85 = CARTESIAN_POINT ( 'NONE',  ( 0.0000000000000000000, 1.659396412844663500E-015, 1.649999999999995200 ) ) ;
#86 = CARTESIAN_POINT ( 'NONE',  ( 0.0000000000000000000, 0.0000000000000000000, -0.6455404195852415500 ) ) ;
#87 = DIRECTION ( 'NONE',  ( 1.000000000000000000, 0.0000000000000000000, 0.0000000000000000000 ) ) ;
#88 = VERTEX_POINT ( 'NONE', #34 ) ;
#89 = EDGE_CURVE ( 'NONE', #328, #335, #75, .T. ) ;
#90 = DIRECTION ( 'NONE',  ( 0.0000000000000000000, 0.0000000000000000000, -1.000000000000000000 ) ) ;
#91 = PERSON_AND_ORGANIZATION ( #288, #9 ) ;
#92 = CARTESIAN_POINT ( 'NONE',  ( 6.349999999999999600, 0.0000000000000000000, 0.6455404195852415500 ) ) ;
#93 = CC_DESIGN_PERSON_AND_ORGANIZATION_ASSIGNMENT ( #333, #201, ( #3 ) ) ;
#94 = FACE_OUTER_BOUND ( 'NONE', #127, .T. ) ;
#95 = DIRECTION ( 'NONE',  ( -0.0000000000000000000, -0.0000000000000000000, 1.000000000000000000 ) ) ;
#96 = ORIENTED_EDGE ( 'NONE', *, *, #78, .T. ) ;
#97 = ORIENTED_EDGE ( 'NONE', *, *, #58, .T. ) ;
#98 = DIRECTION ( 'NONE',  ( 0.0000000000000000000, 0.0000000000000000000, -1.000000000000000000 ) ) ;
#99 = SECURITY_CLASSIFICATION ( '', '', #317 ) ;
#100 = DIRECTION ( 'NONE',  ( 0.0000000000000000000, 1.000000000000000000, 0.0000000000000000000 ) ) ;
#101 = DIRECTION ( 'NONE',  ( 0.0000000000000000000, 0.0000000000000000000, -1.000000000000000000 ) ) ;
#102 = ORIENTED_EDGE ( 'NONE', *, *, #173, .T. ) ;
#103 = EDGE_CURVE ( 'NONE', #189, #205, #42, .T. ) ;
#104 = PERSON_AND_ORGANIZATION ( #288, #9 ) ;
#105 = DIRECTION ( 'NONE',  ( -0.0000000000000000000, -0.0000000000000000000, 1.000000000000000000 ) ) ;
#106 = CIRCLE ( 'NONE', #352, 27.09999999999999400 ) ;
#107 = EDGE_CURVE ( 'NONE', #166, #88, #174, .T. ) ;
#108 = VERTEX_POINT ( 'NONE', #289 ) ;
#109 = EDGE_LOOP ( 'NONE', ( #138, #301, #66, #4, #119 ) ) ;
#110 = EDGE_CURVE ( 'NONE', #205, #108, #295, .T. ) ;
#111 = ADVANCED_FACE ( 'NONE', ( #346 ), #258, .T. ) ;
#112 = CARTESIAN_POINT ( 'NONE',  ( 0.0000000000000000000, 0.0000000000000000000, -0.6455404195852415500 ) ) ;
#113 = SPHERICAL_SURFACE ( 'NONE', #253, 27.09999999999999800 ) ;
#114 = CC_DESIGN_PERSON_AND_ORGANIZATION_ASSIGNMENT ( #91, #17, ( #129 ) ) ;
#115 = MANIFOLD_SOLID_BREP ( '4312-001-1-solid1', #307 ) ;
#116 = CALENDAR_DATE ( 2015, 17, 6 ) ;
#117 = DIRECTION ( 'NONE',  ( -1.224646799147353200E-016, -1.000000000000000000, 0.0000000000000000000 ) ) ;
#118 = EDGE_LOOP ( 'NONE', ( #102, #235, #278, #157 ) ) ;
#119 = ORIENTED_EDGE ( 'NONE', *, *, #89, .F. ) ;
#120 = APPROVAL ( #239, 'UNSPECIFIED' ) ;
#121 = PERSON_AND_ORGANIZATION ( #288, #9 ) ;
#122 = DIRECTION ( 'NONE',  ( -1.000000000000000000, 0.0000000000000000000, 0.0000000000000000000 ) ) ;
#123 = CARTESIAN_POINT ( 'NONE',  ( -6.108099807589785400, 0.0000000000000000000, 0.9526725302671096300 ) ) ;
#124 = EDGE_CURVE ( 'NONE', #48, #134, #136, .T. ) ;
#125 = DATE_TIME_ROLE ( 'classification_date' ) ;
#126 = ADVANCED_FACE ( 'NONE', ( #269 ), #265, .T. ) ;
#127 = EDGE_LOOP ( 'NONE', ( #213, #97, #237, #202 ) ) ;
#128 = APPLICATION_PROTOCOL_DEFINITION ( 'international standard', 'config_control_design', 1994, #82 ) ;
#129 = PRODUCT ( '4312-E0W', '4312-E0W', '', ( #366 ) ) ;
#130 = DIRECTION ( 'NONE',  ( -1.000000000000000000, 1.224646799147353200E-016, 0.0000000000000000000 ) ) ;
#131 = ORIENTED_EDGE ( 'NONE', *, *, #70, .F. ) ;
#132 = ADVANCED_FACE ( 'NONE', ( #23 ), #146, .T. ) ;
#133 = SPHERICAL_SURFACE ( 'NONE', #243, 27.09999999999999800 ) ;
#134 = VERTEX_POINT ( 'NONE', #274 ) ;
#135 = DIRECTION ( 'NONE',  ( -0.6187417299756684500, 0.0000000000000000000, -0.7855944701859332000 ) ) ;
#136 = CIRCLE ( 'NONE', #282, 6.349999999999999600 ) ;
#137 = AXIS2_PLACEMENT_3D ( 'NONE', #214, #248, #149 ) ;
#138 = ORIENTED_EDGE ( 'NONE', *, *, #68, .F. ) ;
#139 = APPROVAL_STATUS ( 'not_yet_approved' ) ;
#140 = DATE_AND_TIME ( #148, #188 ) ;
#141 = ORIENTED_EDGE ( 'NONE', *, *, #7, .F. ) ;
#142 = DIRECTION ( 'NONE',  ( 1.000000000000000000, -0.0000000000000000000, 0.0000000000000000000 ) ) ;
#143 = CALENDAR_DATE ( 2015, 17, 6 ) ;
#144 = ORIENTED_EDGE ( 'NONE', *, *, #33, .F. ) ;
#145 = DIRECTION ( 'NONE',  ( 0.0000000000000000000, 0.0000000000000000000, -1.000000000000000000 ) ) ;
#146 = SPHERICAL_SURFACE ( 'NONE', #255, 27.09999999999999800 ) ;
#147 = DIRECTION ( 'NONE',  ( -1.000000000000000000, 0.0000000000000000000, 0.0000000000000000000 ) ) ;
#148 = CALENDAR_DATE ( 2015, 17, 6 ) ;
#149 = DIRECTION ( 'NONE',  ( 1.000000000000000000, 0.0000000000000000000, 0.0000000000000000000 ) ) ;
#150 = CARTESIAN_POINT ( 'NONE',  ( -6.349999999999999600, 7.776507174585692200E-016, -0.6455404195852415500 ) ) ;
#151 = EDGE_LOOP ( 'NONE', ( #73, #96, #198, #222 ) ) ;
#152 = DIRECTION ( 'NONE',  ( 0.0000000000000000000, 0.0000000000000000000, -1.000000000000000000 ) ) ;
#153 = AXIS2_PLACEMENT_3D ( 'NONE', #193, #98, #40 ) ;
#154 = CARTESIAN_POINT ( 'NONE',  ( 0.0000000000000000000, 0.0000000000000000000, 25.45000000000000300 ) ) ;
#155 = CIRCLE ( 'NONE', #364, 27.09999999999999800 ) ;
#156 = DIRECTION ( 'NONE',  ( -0.0000000000000000000, -0.0000000000000000000, 1.000000000000000000 ) ) ;
#157 = ORIENTED_EDGE ( 'NONE', *, *, #12, .F. ) ;
#158 = ORIENTED_EDGE ( 'NONE', *, *, #41, .F. ) ;
#159 = DESIGN_CONTEXT ( 'detailed design', #353, 'design' ) ;
#160 = CC_DESIGN_PERSON_AND_ORGANIZATION_ASSIGNMENT ( #254, #296, ( #3 ) ) ;
#161 = FACE_OUTER_BOUND ( 'NONE', #109, .T. ) ;
#162 = CARTESIAN_POINT ( 'NONE',  ( 0.0000000000000000000, 0.0000000000000000000, -0.9526725302671130700 ) ) ;
#163 = FACE_OUTER_BOUND ( 'NONE', #118, .T. ) ;
#164 = ORIENTED_EDGE ( 'NONE', *, *, #18, .F. ) ;
#165 = DIRECTION ( 'NONE',  ( 0.0000000000000000000, 1.000000000000000000, 0.0000000000000000000 ) ) ;
#166 = VERTEX_POINT ( 'NONE', #2 ) ;
#167 = DIRECTION ( 'NONE',  ( 0.0000000000000000000, 1.000000000000000000, 0.0000000000000000000 ) ) ;
#168 = DIRECTION ( 'NONE',  ( -0.0000000000000000000, -0.0000000000000000000, 1.000000000000000000 ) ) ;
#169 = SPHERICAL_SURFACE ( 'NONE', #65, 27.09999999999999800 ) ;
#170 = UNCERTAINTY_MEASURE_WITH_UNIT (LENGTH_MEASURE( 1.000000000000000100E-005 ), #192, 'distance_accuracy_value', 'NONE');
#171 = CARTESIAN_POINT ( 'NONE',  ( 0.0000000000000000000, 0.0000000000000000000, 0.6455404195852415500 ) ) ;
#172 = ORIENTED_EDGE ( 'NONE', *, *, #41, .T. ) ;
#173 = EDGE_CURVE ( 'NONE', #134, #48, #247, .T. ) ;
#174 = CIRCLE ( 'NONE', #286, 6.108099807589784500 ) ;
#175 = PERSON_AND_ORGANIZATION ( #288, #9 ) ;
#176 = AXIS2_PLACEMENT_3D ( 'NONE', #199, #354, #178 ) ;
#177 = VECTOR ( 'NONE', #264, 1000.000000000000200 ) ;
#178 = DIRECTION ( 'NONE',  ( 1.000000000000000000, 0.0000000000000000000, 0.0000000000000000000 ) ) ;
#179 = CONICAL_SURFACE ( 'NONE', #339, 6.349999999999999600, 0.6671400121617626600 ) ;
#180 = PERSON_AND_ORGANIZATION_ROLE ( 'creator' ) ;
#181 = DIRECTION ( 'NONE',  ( 1.000000000000000000, 0.0000000000000000000, 0.0000000000000000000 ) ) ;
#182 = VECTOR ( 'NONE', #24, 1000.000000000000100 ) ;
#183 = FACE_OUTER_BOUND ( 'NONE', #151, .T. ) ;
#184 = VERTEX_POINT ( 'NONE', #216 ) ;
#185 = EDGE_LOOP ( 'NONE', ( #164, #203, #195, #16 ) ) ;
#186 = DIRECTION ( 'NONE',  ( -1.000000000000000000, 0.0000000000000000000, 0.0000000000000000000 ) ) ;
#187 = ADVANCED_FACE ( 'NONE', ( #231 ), #308, .T. ) ;
#188 = LOCAL_TIME ( 16, 43, 52.00000000000000000, #207 ) ;
#189 = VERTEX_POINT ( 'NONE', #14 ) ;
#190 = LINE ( 'NONE', #342, #49 ) ;
#191 = CARTESIAN_POINT ( 'NONE',  ( 0.0000000000000000000, 0.0000000000000000000, 0.9526725302671130700 ) ) ;
#192 =( LENGTH_UNIT ( ) NAMED_UNIT ( * ) SI_UNIT ( .MILLI., .METRE. ) );
#193 = CARTESIAN_POINT ( 'NONE',  ( 0.0000000000000000000, 0.0000000000000000000, -0.9526725302671130700 ) ) ;
#194 = DIRECTION ( 'NONE',  ( -1.000000000000000000, 0.0000000000000000000, 0.0000000000000000000 ) ) ;
#195 = ORIENTED_EDGE ( 'NONE', *, *, #47, .T. ) ;
#196 = DIRECTION ( 'NONE',  ( -0.0000000000000000000, -0.0000000000000000000, 1.000000000000000000 ) ) ;
#197 = CIRCLE ( 'NONE', #358, 27.09999999999999800 ) ;
#198 = ORIENTED_EDGE ( 'NONE', *, *, #89, .T. ) ;
#199 = CARTESIAN_POINT ( 'NONE',  ( 0.0000000000000000000, 0.0000000000000000000, 0.0000000000000000000 ) ) ;
#200 = PRODUCT_DEFINITION_SHAPE ( 'NONE', 'NONE',  #365 ) ;
#201 = PERSON_AND_ORGANIZATION_ROLE ( 'creator' ) ;
#202 = ORIENTED_EDGE ( 'NONE', *, *, #68, .T. ) ;
#203 = ORIENTED_EDGE ( 'NONE', *, *, #218, .T. ) ;
#204 = CARTESIAN_POINT ( 'NONE',  ( 6.108099807589785400, 0.0000000000000000000, -0.9526725302671130700 ) ) ;
#205 = VERTEX_POINT ( 'NONE', #10 ) ;
#206 = CIRCLE ( 'NONE', #293, 6.349999999999999600 ) ;
#207 = COORDINATED_UNIVERSAL_TIME_OFFSET ( 5, 0, .BEHIND. ) ;
#208 = CALENDAR_DATE ( 2015, 17, 6 ) ;
#209 = DIRECTION ( 'NONE',  ( 0.0000000000000000000, 0.0000000000000000000, -1.000000000000000000 ) ) ;
#210 = APPROVAL_PERSON_ORGANIZATION ( #121, #251, #11 ) ;
#211 = ADVANCED_FACE ( 'NONE', ( #332 ), #287, .T. ) ;
#212 = APPROVAL_DATE_TIME ( #224, #340 ) ;
#213 = ORIENTED_EDGE ( 'NONE', *, *, #78, .F. ) ;
#214 = CARTESIAN_POINT ( 'NONE',  ( 0.0000000000000000000, 0.0000000000000000000, 1.649999999999999900 ) ) ;
#215 = CARTESIAN_POINT ( 'NONE',  ( 6.108099807589785400, 7.480264878237394300E-016, 0.9526725302671096300 ) ) ;
#216 = CARTESIAN_POINT ( 'NONE',  ( 0.0000000000000000000, 1.659396412844663500E-015, -1.649999999999995200 ) ) ;
#217 = PERSON_AND_ORGANIZATION ( #288, #9 ) ;
#218 = EDGE_CURVE ( 'NONE', #221, #313, #314, .T. ) ;
#219 = DIRECTION ( 'NONE',  ( 0.0000000000000000000, 0.0000000000000000000, -1.000000000000000000 ) ) ;
#220 = CARTESIAN_POINT ( 'NONE',  ( 6.108099807589785400, 7.628386026411544700E-016, 0.9526725302671130700 ) ) ;
#221 = VERTEX_POINT ( 'NONE', #312 ) ;
#222 = ORIENTED_EDGE ( 'NONE', *, *, #44, .T. ) ;
#223 = LOCAL_TIME ( 16, 43, 52.00000000000000000, #77 ) ;
#224 = DATE_AND_TIME ( #143, #35 ) ;
#225 = EDGE_LOOP ( 'NONE', ( #302, #64, #67, #311, #336 ) ) ;
#226 = CIRCLE ( 'NONE', #337, 27.09999999999999800 ) ;
#227 = ADVANCED_FACE ( 'NONE', ( #94 ), #169, .T. ) ;
#228 = DIRECTION ( 'NONE',  ( 1.000000000000000000, 0.0000000000000000000, 0.0000000000000000000 ) ) ;
#229 = DATE_AND_TIME ( #116, #223 ) ;
#230 = EDGE_LOOP ( 'NONE', ( #284, #39, #5, #36 ) ) ;
#231 = FACE_OUTER_BOUND ( 'NONE', #15, .T. ) ;
#232 = CARTESIAN_POINT ( 'NONE',  ( 0.0000000000000000000, 0.0000000000000000000, 0.9526725302671130700 ) ) ;
#233 = DATE_AND_TIME ( #208, #26 ) ;
#234 = EDGE_CURVE ( 'NONE', #48, #108, #8, .T. ) ;
#235 = ORIENTED_EDGE ( 'NONE', *, *, #234, .T. ) ;
#236 = ADVANCED_FACE ( 'NONE', ( #262 ), #133, .T. ) ;
#237 = ORIENTED_EDGE ( 'NONE', *, *, #107, .T. ) ;
#238 = CC_DESIGN_PERSON_AND_ORGANIZATION_ASSIGNMENT ( #281, #180, ( #365 ) ) ;
#239 = APPROVAL_STATUS ( 'not_yet_approved' ) ;
#240 = CARTESIAN_POINT ( 'NONE',  ( 0.0000000000000000000, 0.0000000000000000000, 0.9526725302671130700 ) ) ;
#241 = ORIENTED_EDGE ( 'NONE', *, *, #107, .F. ) ;
#242 = VERTEX_POINT ( 'NONE', #85 ) ;
#243 = AXIS2_PLACEMENT_3D ( 'NONE', #338, #50, #330 ) ;
#244 = CARTESIAN_POINT ( 'NONE',  ( -6.349999999999999600, 7.776507174585692200E-016, -0.6455404195852415500 ) ) ;
#245 = DIRECTION ( 'NONE',  ( 0.6187417299756697900, 0.0000000000000000000, 0.7855944701859320900 ) ) ;
#246 = ORIENTED_EDGE ( 'NONE', *, *, #74, .T. ) ;
#247 = CIRCLE ( 'NONE', #63, 6.349999999999999600 ) ;
#248 = DIRECTION ( 'NONE',  ( -0.0000000000000000000, -0.0000000000000000000, 1.000000000000000000 ) ) ;
#249 = CARTESIAN_POINT ( 'NONE',  ( 0.0000000000000000000, 0.0000000000000000000, 0.9526725302671096300 ) ) ;
#250 = CC_DESIGN_DATE_AND_TIME_ASSIGNMENT ( #140, #357, ( #365 ) ) ;
#251 = APPROVAL ( #355, 'UNSPECIFIED' ) ;
#252 = CIRCLE ( 'NONE', #361, 6.108099807589785400 ) ;
#253 = AXIS2_PLACEMENT_3D ( 'NONE', #271, #256, #165 ) ;
#254 = PERSON_AND_ORGANIZATION ( #288, #9 ) ;
#255 = AXIS2_PLACEMENT_3D ( 'NONE', #276, #122, #167 ) ;
#256 = DIRECTION ( 'NONE',  ( -1.000000000000000000, 0.0000000000000000000, 0.0000000000000000000 ) ) ;
#257 = LINE ( 'NONE', #215, #177 ) ;
#258 = CONICAL_SURFACE ( 'NONE', #275, 6.349999999999999600, 0.6671400121617626600 ) ;
#259 = DIRECTION ( 'NONE',  ( -0.0000000000000000000, -0.0000000000000000000, 1.000000000000000000 ) ) ;
#260 = AXIS2_PLACEMENT_3D ( 'NONE', #249, #101, #272 ) ;
#261 = EDGE_LOOP ( 'NONE', ( #28, #172, #267, #131 ) ) ;
#262 = FACE_OUTER_BOUND ( 'NONE', #261, .T. ) ;
#263 = DIRECTION ( 'NONE',  ( -1.224646799147353200E-016, -1.000000000000000000, 0.0000000000000000000 ) ) ;
#264 = DIRECTION ( 'NONE',  ( 0.6187417299756684500, 7.577400791135981700E-017, -0.7855944701859332000 ) ) ;
#265 = CONICAL_SURFACE ( 'NONE', #260, 6.108099807589785400, 0.6671400121617608900 ) ;
#266 = CARTESIAN_POINT ( 'NONE',  ( 0.0000000000000000000, 0.0000000000000000000, -25.45000000000000300 ) ) ;
#267 = ORIENTED_EDGE ( 'NONE', *, *, #18, .T. ) ;
#268 = DIRECTION ( 'NONE',  ( -1.000000000000000000, 1.224646799147353200E-016, 0.0000000000000000000 ) ) ;
#269 = FACE_OUTER_BOUND ( 'NONE', #225, .T. ) ;
#270 = APPROVAL_DATE_TIME ( #233, #120 ) ;
#271 = CARTESIAN_POINT ( 'NONE',  ( 0.0000000000000000000, 0.0000000000000000000, 25.45000000000000300 ) ) ;
#272 = DIRECTION ( 'NONE',  ( -1.000000000000000000, 0.0000000000000000000, 0.0000000000000000000 ) ) ;
#273 = DIRECTION ( 'NONE',  ( 0.0000000000000000000, 0.0000000000000000000, -1.000000000000000000 ) ) ;
#274 = CARTESIAN_POINT ( 'NONE',  ( 6.349999999999999600, 0.0000000000000000000, -0.6455404195852415500 ) ) ;
#275 = AXIS2_PLACEMENT_3D ( 'NONE', #32, #105, #87 ) ;
#276 = CARTESIAN_POINT ( 'NONE',  ( 0.0000000000000000000, 0.0000000000000000000, -25.45000000000000300 ) ) ;
#277 = CARTESIAN_POINT ( 'NONE',  ( 0.0000000000000000000, 0.0000000000000000000, -0.9526725302671130700 ) ) ;
#278 = ORIENTED_EDGE ( 'NONE', *, *, #38, .T. ) ;
#279 = DIRECTION ( 'NONE',  ( 0.0000000000000000000, 0.0000000000000000000, -1.000000000000000000 ) ) ;
#280 = VECTOR ( 'NONE', #135, 1000.000000000000200 ) ;
#281 = PERSON_AND_ORGANIZATION ( #288, #9 ) ;
#282 = AXIS2_PLACEMENT_3D ( 'NONE', #329, #54, #181 ) ;
#283 = COORDINATED_UNIVERSAL_TIME_OFFSET ( 5, 0, .BEHIND. ) ;
#284 = ORIENTED_EDGE ( 'NONE', *, *, #234, .F. ) ;
#285 = CARTESIAN_POINT ( 'NONE',  ( 6.349999999999999600, 0.0000000000000000000, 1.649999999999999900 ) ) ;
#286 = AXIS2_PLACEMENT_3D ( 'NONE', #162, #273, #228 ) ;
#287 = CYLINDRICAL_SURFACE ( 'NONE', #300, 6.349999999999999600 ) ;
#288 = PERSON ( 'UNSPECIFIED', 'UNSPECIFIED', 'UNSPECIFIED', ('UNSPECIFIED'), ('UNSPECIFIED'), ('UNSPECIFIED') ) ;
#289 = CARTESIAN_POINT ( 'NONE',  ( -6.349999999999999600, 7.776507174585692200E-016, 0.6455404195852415500 ) ) ;
#290 = DIRECTION ( 'NONE',  ( 1.000000000000000000, 0.0000000000000000000, 0.0000000000000000000 ) ) ;
#291 = CARTESIAN_POINT ( 'NONE',  ( 0.0000000000000000000, 0.0000000000000000000, -0.9526725302671130700 ) ) ;
#292 = APPROVAL_DATE_TIME ( #304, #251 ) ;
#293 = AXIS2_PLACEMENT_3D ( 'NONE', #171, #145, #61 ) ;
#294 = ORIENTED_EDGE ( 'NONE', *, *, #84, .F. ) ;
#295 = LINE ( 'NONE', #123, #280 ) ;
#296 = PERSON_AND_ORGANIZATION_ROLE ( 'design_supplier' ) ;
#297 = ORIENTED_EDGE ( 'NONE', *, *, #218, .F. ) ;
#298 = AXIS2_PLACEMENT_3D ( 'NONE', #46, #168, #316 ) ;
#299 = SHAPE_DEFINITION_REPRESENTATION ( #200, #341 ) ;
#300 = AXIS2_PLACEMENT_3D ( 'NONE', #362, #1, #290 ) ;
#301 = ORIENTED_EDGE ( 'NONE', *, *, #84, .T. ) ;
#302 = ORIENTED_EDGE ( 'NONE', *, *, #47, .F. ) ;
#303 = DIRECTION ( 'NONE',  ( 1.000000000000000000, 0.0000000000000000000, 0.0000000000000000000 ) ) ;
#304 = DATE_AND_TIME ( #315, #349 ) ;
#305 = AXIS2_PLACEMENT_3D ( 'NONE', #232, #331, #318 ) ;
#306 = CC_DESIGN_SECURITY_CLASSIFICATION ( #99, ( #3 ) ) ;
#307 = CLOSED_SHELL ( 'NONE', ( #126, #79, #227, #359, #236, #132, #211, #325, #111, #187 ) ) ;
#308 = CONICAL_SURFACE ( 'NONE', #320, 6.108099807589785400, 0.6671400121617608900 ) ;
#309 = DIRECTION ( 'NONE',  ( -1.000000000000000000, 0.0000000000000000000, 0.0000000000000000000 ) ) ;
#310 =( GEOMETRIC_REPRESENTATION_CONTEXT ( 3 ) GLOBAL_UNCERTAINTY_ASSIGNED_CONTEXT ( ( #170 ) ) GLOBAL_UNIT_ASSIGNED_CONTEXT ( ( #192, #56, #19 ) ) REPRESENTATION_CONTEXT ( 'NONE', 'WORKASPACE' ) );
#311 = ORIENTED_EDGE ( 'NONE', *, *, #110, .F. ) ;
#312 = CARTESIAN_POINT ( 'NONE',  ( -7.480264878237383500E-016, -6.108099807589776600, 0.9526725302671130700 ) ) ;
#313 = VERTEX_POINT ( 'NONE', #220 ) ;
#314 = CIRCLE ( 'NONE', #305, 6.108099807589785400 ) ;
#315 = CALENDAR_DATE ( 2015, 17, 6 ) ;
#316 = DIRECTION ( 'NONE',  ( -1.000000000000000000, 0.0000000000000000000, 0.0000000000000000000 ) ) ;
#317 = SECURITY_CLASSIFICATION_LEVEL ( 'unclassified' ) ;
#318 = DIRECTION ( 'NONE',  ( -1.000000000000000000, 0.0000000000000000000, 0.0000000000000000000 ) ) ;
#319 = PERSON_AND_ORGANIZATION_ROLE ( 'classification_officer' ) ;
#320 = AXIS2_PLACEMENT_3D ( 'NONE', #367, #279, #186 ) ;
#321 = PRODUCT_RELATED_PRODUCT_CATEGORY ( 'detail', '', ( #129 ) ) ;
#322 = CARTESIAN_POINT ( 'NONE',  ( 0.0000000000000000000, 0.0000000000000000000, 25.45000000000000300 ) ) ;
#323 = CC_DESIGN_DATE_AND_TIME_ASSIGNMENT ( #229, #125, ( #99 ) ) ;
#324 = CIRCLE ( 'NONE', #298, 6.108099807589785400 ) ;
#325 = ADVANCED_FACE ( 'NONE', ( #183 ), #113, .T. ) ;
#326 = CYLINDRICAL_SURFACE ( 'NONE', #137, 6.349999999999999600 ) ;
#327 = AXIS2_PLACEMENT_3D ( 'NONE', #51, #31, #309 ) ;
#328 = VERTEX_POINT ( 'NONE', #53 ) ;
#329 = CARTESIAN_POINT ( 'NONE',  ( 0.0000000000000000000, 0.0000000000000000000, -0.6455404195852415500 ) ) ;
#330 = DIRECTION ( 'NONE',  ( 0.0000000000000000000, 1.000000000000000000, 0.0000000000000000000 ) ) ;
#331 = DIRECTION ( 'NONE',  ( -0.0000000000000000000, -0.0000000000000000000, 1.000000000000000000 ) ) ;
#332 = FACE_OUTER_BOUND ( 'NONE', #230, .T. ) ;
#333 = PERSON_AND_ORGANIZATION ( #288, #9 ) ;
#334 = COORDINATED_UNIVERSAL_TIME_OFFSET ( 5, 0, .BEHIND. ) ;
#335 = VERTEX_POINT ( 'NONE', #204 ) ;
#336 = ORIENTED_EDGE ( 'NONE', *, *, #103, .F. ) ;
#337 = AXIS2_PLACEMENT_3D ( 'NONE', #71, #303, #219 ) ;
#338 = CARTESIAN_POINT ( 'NONE',  ( 0.0000000000000000000, 0.0000000000000000000, -25.45000000000000300 ) ) ;
#339 = AXIS2_PLACEMENT_3D ( 'NONE', #86, #196, #37 ) ;
#340 = APPROVAL ( #139, 'UNSPECIFIED' ) ;
#341 = ADVANCED_BREP_SHAPE_REPRESENTATION ( '4312-E0W', ( #115, #176 ), #310 ) ;
#342 = CARTESIAN_POINT ( 'NONE',  ( 6.349999999999999600, 0.0000000000000000000, -0.6455404195852415500 ) ) ;
#343 = APPROVAL_ROLE ( '' ) ;
#344 = AXIS2_PLACEMENT_3D ( 'NONE', #291, #90, #76 ) ;
#345 = ORIENTED_EDGE ( 'NONE', *, *, #110, .T. ) ;
#346 = FACE_OUTER_BOUND ( 'NONE', #351, .T. ) ;
#347 = AXIS2_PLACEMENT_3D ( 'NONE', #191, #30, #147 ) ;
#348 = CC_DESIGN_APPROVAL ( #340, ( #99 ) ) ;
#349 = LOCAL_TIME ( 16, 43, 52.00000000000000000, #334 ) ;
#350 = VECTOR ( 'NONE', #95, 1000.000000000000000 ) ;
#351 = EDGE_LOOP ( 'NONE', ( #294, #241, #43, #246, #22 ) ) ;
#352 = AXIS2_PLACEMENT_3D ( 'NONE', #266, #142, #209 ) ;
#353 = APPLICATION_CONTEXT ( 'configuration controlled 3d designs of mechanical parts and assemblies' ) ;
#354 = DIRECTION ( 'NONE',  ( 0.0000000000000000000, 0.0000000000000000000, 1.000000000000000000 ) ) ;
#355 = APPROVAL_STATUS ( 'not_yet_approved' ) ;
#356 = AXIS2_PLACEMENT_3D ( 'NONE', #277, #152, #25 ) ;
#357 = DATE_TIME_ROLE ( 'creation_date' ) ;
#358 = AXIS2_PLACEMENT_3D ( 'NONE', #322, #268, #117 ) ;
#359 = ADVANCED_FACE ( 'NONE', ( #163 ), #326, .T. ) ;
#360 = CC_DESIGN_PERSON_AND_ORGANIZATION_ASSIGNMENT ( #175, #319, ( #99 ) ) ;
#361 = AXIS2_PLACEMENT_3D ( 'NONE', #240, #156, #194 ) ;
#362 = CARTESIAN_POINT ( 'NONE',  ( 0.0000000000000000000, 0.0000000000000000000, 1.649999999999999900 ) ) ;
#363 = VECTOR ( 'NONE', #259, 1000.000000000000000 ) ;
#364 = AXIS2_PLACEMENT_3D ( 'NONE', #81, #130, #263 ) ;
#365 = PRODUCT_DEFINITION ( 'UNKNOWN', '', #3, #159 ) ;
#366 = MECHANICAL_CONTEXT ( 'NONE', #82, 'mechanical' ) ;
#367 = CARTESIAN_POINT ( 'NONE',  ( 0.0000000000000000000, 0.0000000000000000000, 0.9526725302671096300 ) ) ;
ENDSEC;
END-ISO-10303-21;
