ISO-10303-21;
HEADER;
FILE_DESCRIPTION (( 'STEP AP203' ),
    '1' );
FILE_NAME ('4298-E0W.STEP',
    '2015-05-29T14:16:49',
    ( 'admin' ),
    ( '' ),
    'SwSTEP 2.0',
    'SolidWorks 2014',
    '' );
FILE_SCHEMA (( 'CONFIG_CONTROL_DESIGN' ));
ENDSEC;

DATA;
#1 = CARTESIAN_POINT ( 'NONE',  ( -135.2998149963189900, 0.0000000000000000000, 0.0000000000000000000 ) ) ;
#2 = PERSON_AND_ORGANIZATION_ROLE ( 'classification_officer' ) ;
#3 = VECTOR ( 'NONE', #267, 1000.000000000000100 ) ;
#4 = AXIS2_PLACEMENT_3D ( 'NONE', #61, #212, #27 ) ;
#5 = APPLICATION_CONTEXT ( 'configuration controlled 3d designs of mechanical parts and assemblies' ) ;
#6 = LINE ( 'NONE', #18, #281 ) ;
#7 = DIRECTION ( 'NONE',  ( -0.0000000000000000000, 1.000000000000000000, 1.224646799147353200E-016 ) ) ;
#8 = APPLICATION_PROTOCOL_DEFINITION ( 'international standard', 'config_control_design', 1994, #5 ) ;
#9 = ADVANCED_BREP_SHAPE_REPRESENTATION ( '4298-E0W', ( #193, #208 ), #125 ) ;
#10 = LINE ( 'NONE', #90, #238 ) ;
#11 = CARTESIAN_POINT ( 'NONE',  ( -135.2998149963189900, 0.0000000000000000000, -0.2259667713057356100 ) ) ;
#12 = CARTESIAN_POINT ( 'NONE',  ( 0.3461511958817858900, 0.0000000000000000000, 25.15457411702695000 ) ) ;
#13 = CARTESIAN_POINT ( 'NONE',  ( -2.450000000000010400, 0.0000000000000000000, 25.39999999999999900 ) ) ;
#14 = FACE_OUTER_BOUND ( 'NONE', #42, .T. ) ;
#15 = CIRCLE ( 'NONE', #244, 25.15457411702686500 ) ;
#16 = DESIGN_CONTEXT ( 'detailed design', #62, 'design' ) ;
#17 = DIRECTION ( 'NONE',  ( 1.000000000000000000, 0.0000000000000000000, 0.0000000000000000000 ) ) ;
#18 = CARTESIAN_POINT ( 'NONE',  ( -2.700000000000000200, 3.110602869834276900E-015, -25.39999999999999900 ) ) ;
#19 = TOROIDAL_SURFACE ( 'NONE', #92, -0.2259667713057356100, 138.0000000000000000 ) ;
#20 = PERSON ( 'UNSPECIFIED', 'UNSPECIFIED', 'UNSPECIFIED', ('UNSPECIFIED'), ('UNSPECIFIED'), ('UNSPECIFIED') ) ;
#21 = DIRECTION ( 'NONE',  ( -1.000000000000000000, -0.0000000000000000000, -0.0000000000000000000 ) ) ;
#22 = AXIS2_PLACEMENT_3D ( 'NONE', #65, #101, #43 ) ;
#23 = DIRECTION ( 'NONE',  ( -1.000000000000000000, -0.0000000000000000000, -0.0000000000000000000 ) ) ;
#24 = ADVANCED_FACE ( 'NONE', ( #242 ), #301, .F. ) ;
#25 = VERTEX_POINT ( 'NONE', #12 ) ;
#26 = ORIENTED_EDGE ( 'NONE', *, *, #190, .T. ) ;
#27 = DIRECTION ( 'NONE',  ( 0.0000000000000000000, 0.0000000000000000000, 1.000000000000000000 ) ) ;
#28 = CARTESIAN_POINT ( 'NONE',  ( -2.450000000000010400, 0.0000000000000000000, 0.0000000000000000000 ) ) ;
#29 =( LENGTH_UNIT ( ) NAMED_UNIT ( * ) SI_UNIT ( .MILLI., .METRE. ) );
#30 = DIRECTION ( 'NONE',  ( 0.0000000000000000000, 0.0000000000000000000, -1.000000000000000000 ) ) ;
#31 = VECTOR ( 'NONE', #34, 1000.000000000000100 ) ;
#32 = ADVANCED_FACE ( 'NONE', ( #89 ), #113, .T. ) ;
#33 = DIRECTION ( 'NONE',  ( 0.0000000000000000000, 0.0000000000000000000, -1.000000000000000000 ) ) ;
#34 = DIRECTION ( 'NONE',  ( 0.7071067811865474600, 0.0000000000000000000, -0.7071067811865474600 ) ) ;
#35 = APPROVAL ( #207, 'UNSPECIFIED' ) ;
#36 = EDGE_LOOP ( 'NONE', ( #237, #149, #121, #195 ) ) ;
#37 = AXIS2_PLACEMENT_3D ( 'NONE', #286, #7, #256 ) ;
#38 = AXIS2_PLACEMENT_3D ( 'NONE', #197, #229, #73 ) ;
#39 = PRODUCT_RELATED_PRODUCT_CATEGORY ( 'detail', '', ( #221 ) ) ;
#40 = LOCAL_TIME ( 10, 16, 49.00000000000000000, #133 ) ;
#41 = CIRCLE ( 'NONE', #84, 25.39999999999999900 ) ;
#42 = EDGE_LOOP ( 'NONE', ( #277, #83, #186, #203 ) ) ;
#43 = DIRECTION ( 'NONE',  ( 0.0000000000000000000, 0.0000000000000000000, 1.000000000000000000 ) ) ;
#44 = LINE ( 'NONE', #91, #31 ) ;
#45 = CONICAL_SURFACE ( 'NONE', #22, 25.39999999999999900, 0.6920083956041707100 ) ;
#46 = PRODUCT_DEFINITION ( 'UNKNOWN', '', #112, #16 ) ;
#47 = VECTOR ( 'NONE', #54, 1000.000000000000000 ) ;
#48 = CONICAL_SURFACE ( 'NONE', #110, 25.39999999999999900, 0.6920083956041707100 ) ;
#49 = EDGE_CURVE ( 'NONE', #156, #78, #192, .T. ) ;
#50 = CIRCLE ( 'NONE', #37, 138.0000000000000000 ) ;
#51 = CONICAL_SURFACE ( 'NONE', #108, 25.15000000000000900, 0.7853981633974482800 ) ;
#52 = LINE ( 'NONE', #219, #72 ) ;
#53 = CC_DESIGN_APPROVAL ( #35, ( #46 ) ) ;
#54 = DIRECTION ( 'NONE',  ( -1.000000000000000000, -0.0000000000000000000, -0.0000000000000000000 ) ) ;
#55 = DIRECTION ( 'NONE',  ( -0.7699660419090491600, 7.814285868971082600E-017, -0.6380848645022950700 ) ) ;
#56 = ORIENTED_EDGE ( 'NONE', *, *, #234, .T. ) ;
#57 = CC_DESIGN_APPROVAL ( #147, ( #112 ) ) ;
#58 = AXIS2_PLACEMENT_3D ( 'NONE', #111, #215, #33 ) ;
#59 = TOROIDAL_SURFACE ( 'NONE', #261, -0.2259667713057356100, 138.0000000000000000 ) ;
#60 = LINE ( 'NONE', #189, #3 ) ;
#61 = CARTESIAN_POINT ( 'NONE',  ( 0.3461511958817720100, 0.0000000000000000000, 0.0000000000000000000 ) ) ;
#62 = APPLICATION_CONTEXT ( 'configuration controlled 3d designs of mechanical parts and assemblies' ) ;
#63 = CC_DESIGN_PERSON_AND_ORGANIZATION_ASSIGNMENT ( #230, #275, ( #221 ) ) ;
#64 = CIRCLE ( 'NONE', #38, 25.15000000000000900 ) ;
#65 = CARTESIAN_POINT ( 'NONE',  ( 0.05000000000249249500, 0.0000000000000000000, 0.0000000000000000000 ) ) ;
#66 = AXIS2_PLACEMENT_3D ( 'NONE', #128, #243, #231 ) ;
#67 = APPLICATION_PROTOCOL_DEFINITION ( 'international standard', 'config_control_design', 1994, #62 ) ;
#68 = AXIS2_PLACEMENT_3D ( 'NONE', #172, #173, #196 ) ;
#69 = CONICAL_SURFACE ( 'NONE', #58, 25.15000000000000900, 0.7853981633974482800 ) ;
#70 = LINE ( 'NONE', #298, #47 ) ;
#71 =( NAMED_UNIT ( * ) SI_UNIT ( $, .STERADIAN. ) SOLID_ANGLE_UNIT ( ) );
#72 = VECTOR ( 'NONE', #236, 1000.000000000000100 ) ;
#73 = DIRECTION ( 'NONE',  ( 0.0000000000000000000, 0.0000000000000000000, -1.000000000000000000 ) ) ;
#74 = CC_DESIGN_SECURITY_CLASSIFICATION ( #106, ( #112 ) ) ;
#75 = PERSON_AND_ORGANIZATION_ROLE ( 'design_supplier' ) ;
#76 = EDGE_CURVE ( 'NONE', #127, #245, #107, .T. ) ;
#77 = ORIENTED_EDGE ( 'NONE', *, *, #146, .F. ) ;
#78 = VERTEX_POINT ( 'NONE', #199 ) ;
#79 = COORDINATED_UNIVERSAL_TIME_OFFSET ( 5, 0, .BEHIND. ) ;
#80 = CIRCLE ( 'NONE', #260, 138.0000000000000000 ) ;
#81 =( NAMED_UNIT ( * ) PLANE_ANGLE_UNIT ( ) SI_UNIT ( $, .RADIAN. ) );
#82 = EDGE_CURVE ( 'NONE', #283, #255, #137, .T. ) ;
#83 = ORIENTED_EDGE ( 'NONE', *, *, #188, .F. ) ;
#84 = AXIS2_PLACEMENT_3D ( 'NONE', #187, #17, #30 ) ;
#85 = VERTEX_POINT ( 'NONE', #252 ) ;
#86 = DIRECTION ( 'NONE',  ( 0.0000000000000000000, 0.0000000000000000000, 1.000000000000000000 ) ) ;
#87 = CC_DESIGN_PERSON_AND_ORGANIZATION_ASSIGNMENT ( #262, #96, ( #112 ) ) ;
#88 = FACE_OUTER_BOUND ( 'NONE', #98, .T. ) ;
#89 = FACE_OUTER_BOUND ( 'NONE', #134, .T. ) ;
#90 = CARTESIAN_POINT ( 'NONE',  ( 0.05000000000249249500, 3.110602869834276900E-015, -25.39999999999999900 ) ) ;
#91 = CARTESIAN_POINT ( 'NONE',  ( -2.700000000000000200, 0.0000000000000000000, -25.15000000000000900 ) ) ;
#92 = AXIS2_PLACEMENT_3D ( 'NONE', #155, #21, #213 ) ;
#93 = ORIENTED_EDGE ( 'NONE', *, *, #49, .T. ) ;
#94 = DIRECTION ( 'NONE',  ( -1.000000000000000000, -0.0000000000000000000, -0.0000000000000000000 ) ) ;
#95 = ADVANCED_FACE ( 'NONE', ( #154 ), #69, .T. ) ;
#96 = PERSON_AND_ORGANIZATION_ROLE ( 'creator' ) ;
#97 = CC_DESIGN_PERSON_AND_ORGANIZATION_ASSIGNMENT ( #150, #2, ( #106 ) ) ;
#98 = EDGE_LOOP ( 'NONE', ( #232, #159, #272 ) ) ;
#99 = PERSON_AND_ORGANIZATION ( #20, #175 ) ;
#100 = DIRECTION ( 'NONE',  ( 0.0000000000000000000, 0.0000000000000000000, -1.000000000000000000 ) ) ;
#101 = DIRECTION ( 'NONE',  ( -1.000000000000000000, -0.0000000000000000000, -0.0000000000000000000 ) ) ;
#102 = APPROVAL_DATE_TIME ( #141, #167 ) ;
#103 = CC_DESIGN_PERSON_AND_ORGANIZATION_ASSIGNMENT ( #140, #75, ( #112 ) ) ;
#104 = PRODUCT_DEFINITION_SHAPE ( 'NONE', 'NONE',  #46 ) ;
#105 = DIRECTION ( 'NONE',  ( -1.000000000000000000, -0.0000000000000000000, -0.0000000000000000000 ) ) ;
#106 = SECURITY_CLASSIFICATION ( '', '', #222 ) ;
#107 = CIRCLE ( 'NONE', #176, 25.39999999999999900 ) ;
#108 = AXIS2_PLACEMENT_3D ( 'NONE', #131, #209, #100 ) ;
#109 = CLOSED_SHELL ( 'NONE', ( #95, #136, #123, #32, #24, #295, #253, #276, #249 ) ) ;
#110 = AXIS2_PLACEMENT_3D ( 'NONE', #178, #105, #115 ) ;
#111 = CARTESIAN_POINT ( 'NONE',  ( -2.700000000000000200, 0.0000000000000000000, 0.0000000000000000000 ) ) ;
#112 = PRODUCT_DEFINITION_FORMATION_WITH_SPECIFIED_SOURCE ( 'ANY', '', #221, .NOT_KNOWN. ) ;
#113 = CYLINDRICAL_SURFACE ( 'NONE', #68, 25.39999999999999900 ) ;
#114 = CIRCLE ( 'NONE', #280, 25.39999999999999900 ) ;
#115 = DIRECTION ( 'NONE',  ( 0.0000000000000000000, 0.0000000000000000000, 1.000000000000000000 ) ) ;
#116 = CARTESIAN_POINT ( 'NONE',  ( -2.700000000000000200, 0.0000000000000000000, 0.0000000000000000000 ) ) ;
#117 = CALENDAR_DATE ( 2015, 29, 5 ) ;
#118 = EDGE_CURVE ( 'NONE', #78, #156, #64, .T. ) ;
#119 = APPROVAL_STATUS ( 'not_yet_approved' ) ;
#120 = DIRECTION ( 'NONE',  ( 1.000000000000000000, 0.0000000000000000000, 0.0000000000000000000 ) ) ;
#121 = ORIENTED_EDGE ( 'NONE', *, *, #146, .T. ) ;
#122 = PERSON_AND_ORGANIZATION ( #20, #175 ) ;
#123 = ADVANCED_FACE ( 'NONE', ( #165 ), #59, .T. ) ;
#124 = CYLINDRICAL_SURFACE ( 'NONE', #163, 25.39999999999999900 ) ;
#125 =( GEOMETRIC_REPRESENTATION_CONTEXT ( 3 ) GLOBAL_UNCERTAINTY_ASSIGNED_CONTEXT ( ( #271 ) ) GLOBAL_UNIT_ASSIGNED_CONTEXT ( ( #29, #81, #71 ) ) REPRESENTATION_CONTEXT ( 'NONE', 'WORKASPACE' ) );
#126 = CC_DESIGN_PERSON_AND_ORGANIZATION_ASSIGNMENT ( #226, #145, ( #46 ) ) ;
#127 = VERTEX_POINT ( 'NONE', #240 ) ;
#128 = CARTESIAN_POINT ( 'NONE',  ( 0.05000000000249249500, 0.0000000000000000000, 0.0000000000000000000 ) ) ;
#129 = APPROVAL_PERSON_ORGANIZATION ( #122, #167, #217 ) ;
#130 = LOCAL_TIME ( 10, 16, 49.00000000000000000, #135 ) ;
#131 = CARTESIAN_POINT ( 'NONE',  ( -2.700000000000000200, 0.0000000000000000000, 0.0000000000000000000 ) ) ;
#132 = EDGE_CURVE ( 'NONE', #78, #245, #52, .T. ) ;
#133 = COORDINATED_UNIVERSAL_TIME_OFFSET ( 5, 0, .BEHIND. ) ;
#134 = EDGE_LOOP ( 'NONE', ( #284, #293, #191, #160 ) ) ;
#135 = COORDINATED_UNIVERSAL_TIME_OFFSET ( 5, 0, .BEHIND. ) ;
#136 = ADVANCED_FACE ( 'NONE', ( #169 ), #45, .T. ) ;
#137 = CIRCLE ( 'NONE', #66, 25.39999999999999900 ) ;
#138 = CALENDAR_DATE ( 2015, 29, 5 ) ;
#139 = DIRECTION ( 'NONE',  ( 1.000000000000000000, 0.0000000000000000000, 0.0000000000000000000 ) ) ;
#140 = PERSON_AND_ORGANIZATION ( #20, #175 ) ;
#141 = DATE_AND_TIME ( #138, #130 ) ;
#142 = ORIENTED_EDGE ( 'NONE', *, *, #211, .F. ) ;
#143 = CARTESIAN_POINT ( 'NONE',  ( -2.700000000000000200, 0.0000000000000000000, -25.15000000000000900 ) ) ;
#144 = CC_DESIGN_DATE_AND_TIME_ASSIGNMENT ( #264, #270, ( #46 ) ) ;
#145 = PERSON_AND_ORGANIZATION_ROLE ( 'creator' ) ;
#146 = EDGE_CURVE ( 'NONE', #156, #127, #44, .T. ) ;
#147 = APPROVAL ( #119, 'UNSPECIFIED' ) ;
#148 = LOCAL_TIME ( 10, 16, 49.00000000000000000, #174 ) ;
#149 = ORIENTED_EDGE ( 'NONE', *, *, #49, .F. ) ;
#150 = PERSON_AND_ORGANIZATION ( #20, #175 ) ;
#151 = DIRECTION ( 'NONE',  ( 0.0000000000000000000, 0.0000000000000000000, 1.000000000000000000 ) ) ;
#152 = CARTESIAN_POINT ( 'NONE',  ( -2.700000000000000200, 0.0000000000000000000, 0.0000000000000000000 ) ) ;
#153 = LOCAL_TIME ( 10, 16, 49.00000000000000000, #157 ) ;
#154 = FACE_OUTER_BOUND ( 'NONE', #218, .T. ) ;
#155 = CARTESIAN_POINT ( 'NONE',  ( -135.2998149963189900, 0.0000000000000000000, 0.0000000000000000000 ) ) ;
#156 = VERTEX_POINT ( 'NONE', #143 ) ;
#157 = COORDINATED_UNIVERSAL_TIME_OFFSET ( 5, 0, .BEHIND. ) ;
#158 = DIRECTION ( 'NONE',  ( 0.0000000000000000000, 0.0000000000000000000, 1.000000000000000000 ) ) ;
#159 = ORIENTED_EDGE ( 'NONE', *, *, #200, .T. ) ;
#160 = ORIENTED_EDGE ( 'NONE', *, *, #166, .F. ) ;
#161 = EDGE_LOOP ( 'NONE', ( #142, #56, #265, #181 ) ) ;
#162 = EDGE_CURVE ( 'NONE', #245, #127, #41, .T. ) ;
#163 = AXIS2_PLACEMENT_3D ( 'NONE', #152, #266, #182 ) ;
#164 = CARTESIAN_POINT ( 'NONE',  ( 0.3461511958817858900, 3.080546867633191000E-015, -25.15457411702695000 ) ) ;
#165 = FACE_OUTER_BOUND ( 'NONE', #269, .T. ) ;
#166 = EDGE_CURVE ( 'NONE', #283, #245, #70, .T. ) ;
#167 = APPROVAL ( #239, 'UNSPECIFIED' ) ;
#168 = APPROVAL_DATE_TIME ( #292, #35 ) ;
#169 = FACE_OUTER_BOUND ( 'NONE', #291, .T. ) ;
#170 = LOCAL_TIME ( 10, 16, 49.00000000000000000, #79 ) ;
#171 = CALENDAR_DATE ( 2015, 29, 5 ) ;
#172 = CARTESIAN_POINT ( 'NONE',  ( -2.700000000000000200, 0.0000000000000000000, 0.0000000000000000000 ) ) ;
#173 = DIRECTION ( 'NONE',  ( -1.000000000000000000, -0.0000000000000000000, -0.0000000000000000000 ) ) ;
#174 = COORDINATED_UNIVERSAL_TIME_OFFSET ( 5, 0, .BEHIND. ) ;
#175 = ORGANIZATION ( 'UNSPECIFIED', 'UNSPECIFIED', '' ) ;
#176 = AXIS2_PLACEMENT_3D ( 'NONE', #28, #250, #235 ) ;
#177 = MECHANICAL_CONTEXT ( 'NONE', #5, 'mechanical' ) ;
#178 = CARTESIAN_POINT ( 'NONE',  ( 0.05000000000249249500, 0.0000000000000000000, 0.0000000000000000000 ) ) ;
#179 = CC_DESIGN_DATE_AND_TIME_ASSIGNMENT ( #180, #290, ( #106 ) ) ;
#180 = DATE_AND_TIME ( #171, #153 ) ;
#181 = ORIENTED_EDGE ( 'NONE', *, *, #162, .T. ) ;
#182 = DIRECTION ( 'NONE',  ( 0.0000000000000000000, 0.0000000000000000000, 1.000000000000000000 ) ) ;
#183 = DIRECTION ( 'NONE',  ( 1.000000000000000000, 0.0000000000000000000, 0.0000000000000000000 ) ) ;
#184 = ORIENTED_EDGE ( 'NONE', *, *, #279, .T. ) ;
#185 = CARTESIAN_POINT ( 'NONE',  ( 0.05000000000249249500, 3.110602869834276900E-015, -25.39999999999999900 ) ) ;
#186 = ORIENTED_EDGE ( 'NONE', *, *, #282, .T. ) ;
#187 = CARTESIAN_POINT ( 'NONE',  ( -2.450000000000010400, 0.0000000000000000000, 0.0000000000000000000 ) ) ;
#188 = EDGE_CURVE ( 'NONE', #25, #194, #15, .T. ) ;
#189 = CARTESIAN_POINT ( 'NONE',  ( 0.05000000000249249500, 0.0000000000000000000, 25.39999999999999900 ) ) ;
#190 = EDGE_CURVE ( 'NONE', #194, #255, #10, .T. ) ;
#191 = ORIENTED_EDGE ( 'NONE', *, *, #76, .T. ) ;
#192 = CIRCLE ( 'NONE', #297, 25.15000000000000900 ) ;
#193 = MANIFOLD_SOLID_BREP ( '4298-001-1-solid1', #109 ) ;
#194 = VERTEX_POINT ( 'NONE', #164 ) ;
#195 = ORIENTED_EDGE ( 'NONE', *, *, #162, .F. ) ;
#196 = DIRECTION ( 'NONE',  ( 0.0000000000000000000, 0.0000000000000000000, 1.000000000000000000 ) ) ;
#197 = CARTESIAN_POINT ( 'NONE',  ( -2.700000000000000200, 0.0000000000000000000, 0.0000000000000000000 ) ) ;
#198 = DIRECTION ( 'NONE',  ( 0.0000000000000000000, 0.0000000000000000000, -1.000000000000000000 ) ) ;
#199 = CARTESIAN_POINT ( 'NONE',  ( -2.700000000000000200, 3.095294784844935800E-015, 25.15000000000000900 ) ) ;
#200 = EDGE_CURVE ( 'NONE', #85, #25, #80, .T. ) ;
#201 = FACE_OUTER_BOUND ( 'NONE', #36, .T. ) ;
#202 = FACE_OUTER_BOUND ( 'NONE', #161, .T. ) ;
#203 = ORIENTED_EDGE ( 'NONE', *, *, #234, .F. ) ;
#204 = DIRECTION ( 'NONE',  ( -1.000000000000000000, -0.0000000000000000000, -0.0000000000000000000 ) ) ;
#205 = CARTESIAN_POINT ( 'NONE',  ( 0.05000000000249249500, 0.0000000000000000000, 25.39999999999999900 ) ) ;
#206 = ORIENTED_EDGE ( 'NONE', *, *, #279, .F. ) ;
#207 = APPROVAL_STATUS ( 'not_yet_approved' ) ;
#208 = AXIS2_PLACEMENT_3D ( 'NONE', #287, #86, #183 ) ;
#209 = DIRECTION ( 'NONE',  ( 1.000000000000000000, 0.0000000000000000000, 0.0000000000000000000 ) ) ;
#210 = PERSON_AND_ORGANIZATION ( #20, #175 ) ;
#211 = EDGE_CURVE ( 'NONE', #255, #127, #6, .T. ) ;
#212 = DIRECTION ( 'NONE',  ( 1.000000000000000000, 0.0000000000000000000, 0.0000000000000000000 ) ) ;
#213 = DIRECTION ( 'NONE',  ( 0.0000000000000000000, 0.0000000000000000000, 1.000000000000000000 ) ) ;
#214 = APPROVAL_ROLE ( '' ) ;
#215 = DIRECTION ( 'NONE',  ( 1.000000000000000000, 0.0000000000000000000, 0.0000000000000000000 ) ) ;
#216 = ORIENTED_EDGE ( 'NONE', *, *, #118, .T. ) ;
#217 = APPROVAL_ROLE ( '' ) ;
#218 = EDGE_LOOP ( 'NONE', ( #268, #258, #300, #77 ) ) ;
#219 = CARTESIAN_POINT ( 'NONE',  ( -2.700000000000000200, 3.079986699855594300E-015, 25.15000000000000900 ) ) ;
#220 = DIRECTION ( 'NONE',  ( 0.0000000000000000000, -1.000000000000000000, 0.0000000000000000000 ) ) ;
#221 = PRODUCT ( '4298-E0W', '4298-E0W', '', ( #177 ) ) ;
#222 = SECURITY_CLASSIFICATION_LEVEL ( 'unclassified' ) ;
#223 = CARTESIAN_POINT ( 'NONE',  ( 0.3461511958817720100, 0.0000000000000000000, 0.0000000000000000000 ) ) ;
#224 = DIRECTION ( 'NONE',  ( 0.0000000000000000000, 0.0000000000000000000, -1.000000000000000000 ) ) ;
#225 = ORIENTED_EDGE ( 'NONE', *, *, #282, .F. ) ;
#226 = PERSON_AND_ORGANIZATION ( #20, #175 ) ;
#227 = DIRECTION ( 'NONE',  ( 0.0000000000000000000, 0.0000000000000000000, -1.000000000000000000 ) ) ;
#228 = DIRECTION ( 'NONE',  ( -1.000000000000000000, -0.0000000000000000000, -0.0000000000000000000 ) ) ;
#229 = DIRECTION ( 'NONE',  ( -1.000000000000000000, -0.0000000000000000000, -0.0000000000000000000 ) ) ;
#230 = PERSON_AND_ORGANIZATION ( #20, #175 ) ;
#231 = DIRECTION ( 'NONE',  ( 0.0000000000000000000, 0.0000000000000000000, 1.000000000000000000 ) ) ;
#232 = ORIENTED_EDGE ( 'NONE', *, *, #251, .F. ) ;
#233 = CIRCLE ( 'NONE', #4, 25.15457411702686500 ) ;
#234 = EDGE_CURVE ( 'NONE', #255, #283, #114, .T. ) ;
#235 = DIRECTION ( 'NONE',  ( 0.0000000000000000000, 0.0000000000000000000, -1.000000000000000000 ) ) ;
#236 = DIRECTION ( 'NONE',  ( 0.7071067811865474600, 8.659560562354932900E-017, 0.7071067811865474600 ) ) ;
#237 = ORIENTED_EDGE ( 'NONE', *, *, #132, .F. ) ;
#238 = VECTOR ( 'NONE', #55, 1000.000000000000100 ) ;
#239 = APPROVAL_STATUS ( 'not_yet_approved' ) ;
#240 = CARTESIAN_POINT ( 'NONE',  ( -2.450000000000010400, 3.110602869834276900E-015, -25.39999999999999900 ) ) ;
#241 = AXIS2_PLACEMENT_3D ( 'NONE', #116, #120, #198 ) ;
#242 = FACE_OUTER_BOUND ( 'NONE', #248, .T. ) ;
#243 = DIRECTION ( 'NONE',  ( -1.000000000000000000, -0.0000000000000000000, -0.0000000000000000000 ) ) ;
#244 = AXIS2_PLACEMENT_3D ( 'NONE', #223, #139, #151 ) ;
#245 = VERTEX_POINT ( 'NONE', #13 ) ;
#246 = SHAPE_DEFINITION_REPRESENTATION ( #104, #9 ) ;
#247 = APPROVAL_ROLE ( '' ) ;
#248 = EDGE_LOOP ( 'NONE', ( #93, #216 ) ) ;
#249 = ADVANCED_FACE ( 'NONE', ( #201 ), #51, .T. ) ;
#250 = DIRECTION ( 'NONE',  ( 1.000000000000000000, 0.0000000000000000000, 0.0000000000000000000 ) ) ;
#251 = EDGE_CURVE ( 'NONE', #85, #194, #50, .T. ) ;
#252 = CARTESIAN_POINT ( 'NONE',  ( 2.700000000000000200, 0.0000000000000000000, 0.0000000000000000000 ) ) ;
#253 = ADVANCED_FACE ( 'NONE', ( #88 ), #19, .T. ) ;
#254 = CC_DESIGN_APPROVAL ( #167, ( #106 ) ) ;
#255 = VERTEX_POINT ( 'NONE', #185 ) ;
#256 = DIRECTION ( 'NONE',  ( 0.0000000000000000000, -1.224646799147353200E-016, 1.000000000000000000 ) ) ;
#257 = APPROVAL_PERSON_ORGANIZATION ( #99, #147, #247 ) ;
#258 = ORIENTED_EDGE ( 'NONE', *, *, #132, .T. ) ;
#259 = DIRECTION ( 'NONE',  ( 0.0000000000000000000, 0.0000000000000000000, 1.000000000000000000 ) ) ;
#260 = AXIS2_PLACEMENT_3D ( 'NONE', #11, #220, #224 ) ;
#261 = AXIS2_PLACEMENT_3D ( 'NONE', #1, #204, #158 ) ;
#262 = PERSON_AND_ORGANIZATION ( #20, #175 ) ;
#263 = ORIENTED_EDGE ( 'NONE', *, *, #82, .F. ) ;
#264 = DATE_AND_TIME ( #273, #170 ) ;
#265 = ORIENTED_EDGE ( 'NONE', *, *, #166, .T. ) ;
#266 = DIRECTION ( 'NONE',  ( -1.000000000000000000, -0.0000000000000000000, -0.0000000000000000000 ) ) ;
#267 = DIRECTION ( 'NONE',  ( -0.7699660419090491600, 0.0000000000000000000, 0.6380848645022950700 ) ) ;
#268 = ORIENTED_EDGE ( 'NONE', *, *, #118, .F. ) ;
#269 = EDGE_LOOP ( 'NONE', ( #288, #274, #184 ) ) ;
#270 = DATE_TIME_ROLE ( 'creation_date' ) ;
#271 = UNCERTAINTY_MEASURE_WITH_UNIT (LENGTH_MEASURE( 1.000000000000000100E-005 ), #29, 'distance_accuracy_value', 'NONE');
#272 = ORIENTED_EDGE ( 'NONE', *, *, #188, .T. ) ;
#273 = CALENDAR_DATE ( 2015, 29, 5 ) ;
#274 = ORIENTED_EDGE ( 'NONE', *, *, #251, .T. ) ;
#275 = PERSON_AND_ORGANIZATION_ROLE ( 'design_owner' ) ;
#276 = ADVANCED_FACE ( 'NONE', ( #14 ), #48, .T. ) ;
#277 = ORIENTED_EDGE ( 'NONE', *, *, #190, .F. ) ;
#278 = CARTESIAN_POINT ( 'NONE',  ( -2.700000000000000200, 0.0000000000000000000, 0.0000000000000000000 ) ) ;
#279 = EDGE_CURVE ( 'NONE', #194, #25, #233, .T. ) ;
#280 = AXIS2_PLACEMENT_3D ( 'NONE', #296, #23, #259 ) ;
#281 = VECTOR ( 'NONE', #228, 1000.000000000000000 ) ;
#282 = EDGE_CURVE ( 'NONE', #25, #283, #60, .T. ) ;
#283 = VERTEX_POINT ( 'NONE', #205 ) ;
#284 = ORIENTED_EDGE ( 'NONE', *, *, #82, .T. ) ;
#285 = DATE_AND_TIME ( #289, #148 ) ;
#286 = CARTESIAN_POINT ( 'NONE',  ( -135.2998149963189900, -2.767294831932311200E-017, 0.2259667713057356100 ) ) ;
#287 = CARTESIAN_POINT ( 'NONE',  ( 0.0000000000000000000, 0.0000000000000000000, 0.0000000000000000000 ) ) ;
#288 = ORIENTED_EDGE ( 'NONE', *, *, #200, .F. ) ;
#289 = CALENDAR_DATE ( 2015, 29, 5 ) ;
#290 = DATE_TIME_ROLE ( 'classification_date' ) ;
#291 = EDGE_LOOP ( 'NONE', ( #206, #26, #263, #225 ) ) ;
#292 = DATE_AND_TIME ( #117, #40 ) ;
#293 = ORIENTED_EDGE ( 'NONE', *, *, #211, .T. ) ;
#294 = APPROVAL_PERSON_ORGANIZATION ( #210, #35, #214 ) ;
#295 = ADVANCED_FACE ( 'NONE', ( #202 ), #124, .T. ) ;
#296 = CARTESIAN_POINT ( 'NONE',  ( 0.05000000000249249500, 0.0000000000000000000, 0.0000000000000000000 ) ) ;
#297 = AXIS2_PLACEMENT_3D ( 'NONE', #278, #94, #227 ) ;
#298 = CARTESIAN_POINT ( 'NONE',  ( -2.700000000000000200, 0.0000000000000000000, 25.39999999999999900 ) ) ;
#299 = APPROVAL_DATE_TIME ( #285, #147 ) ;
#300 = ORIENTED_EDGE ( 'NONE', *, *, #76, .F. ) ;
#301 = PLANE ( 'NONE',  #241 ) ;
ENDSEC;
END-ISO-10303-21;
