ISO-10303-21;
HEADER;
FILE_DESCRIPTION (( 'STEP AP203' ),
    '1' );
FILE_NAME ('Web Model 46098_48924.step',
    '2017-03-01T20:51:32',
    ( '' ),
    ( '' ),
    'SwSTEP 2.0',
    'SolidWorks 2016',
    '' );
FILE_SCHEMA (( 'CONFIG_CONTROL_DESIGN' ));
ENDSEC;

DATA;
#1 = CARTESIAN_POINT ( 'NONE',  ( 0.0000000000000000000, 0.0000000000000000000, 0.0000000000000000000 ) ) ;
#2 = EDGE_CURVE ( 'NONE', #76, #36, #10, .T. ) ;
#3 = DATE_TIME_ROLE ( 'creation_date' ) ;
#4 = EDGE_LOOP ( 'NONE', ( #160, #108 ) ) ;
#5 = CARTESIAN_POINT ( 'NONE',  ( 0.0000000000000000000, 0.0000000000000000000, 0.0000000000000000000 ) ) ;
#6 = CARTESIAN_POINT ( 'NONE',  ( 12.70000000000000500, 1.555301434917139000E-015, 0.0000000000000000000 ) ) ;
#7 = DIRECTION ( 'NONE',  ( 1.000000000000000000, 0.0000000000000000000, -0.0000000000000000000 ) ) ;
#8 = EDGE_LOOP ( 'NONE', ( #143, #121 ) ) ;
#9 = EDGE_CURVE ( 'NONE', #19, #104, #132, .T. ) ;
#10 = CIRCLE ( 'NONE', #60, 12.70000000000000500 ) ;
#11 = LOCAL_TIME ( 15, 51, 32.00000000000000000, #46 ) ;
#12 = APPROVAL_ROLE ( '' ) ;
#13 = AXIS2_PLACEMENT_3D ( 'NONE', #28, #25, #123 ) ;
#14 = DIRECTION ( 'NONE',  ( 1.000000000000000000, 0.0000000000000000000, 0.0000000000000000000 ) ) ;
#15 = CALENDAR_DATE ( 2017, 1, 3 ) ;
#16 = APPROVAL_DATE_TIME ( #166, #43 ) ;
#17 = CARTESIAN_POINT ( 'NONE',  ( 0.0000000000000000000, 0.0000000000000000000, 1.000000000000000000 ) ) ;
#18 = APPLICATION_CONTEXT ( 'configuration controlled 3d designs of mechanical parts and assemblies' ) ;
#19 = VERTEX_POINT ( 'NONE', #147 ) ;
#20 = ORGANIZATION ( 'UNSPECIFIED', 'UNSPECIFIED', '' ) ;
#21 = EDGE_CURVE ( 'NONE', #36, #76, #171, .T. ) ;
#22 = DIRECTION ( 'NONE',  ( 0.0000000000000000000, 0.0000000000000000000, 1.000000000000000000 ) ) ;
#23 = CARTESIAN_POINT ( 'NONE',  ( -12.70000000000000500, 0.0000000000000000000, 0.0000000000000000000 ) ) ;
#24 = CC_DESIGN_PERSON_AND_ORGANIZATION_ASSIGNMENT ( #33, #138, ( #69 ) ) ;
#25 = DIRECTION ( 'NONE',  ( 0.0000000000000000000, 0.0000000000000000000, 1.000000000000000000 ) ) ;
#26 = PERSON_AND_ORGANIZATION_ROLE ( 'design_supplier' ) ;
#27 = MANIFOLD_SOLID_BREP ( 'Boss-Extrude1', #70 ) ;
#28 = CARTESIAN_POINT ( 'NONE',  ( 0.0000000000000000000, 0.0000000000000000000, 0.0000000000000000000 ) ) ;
#29 = COORDINATED_UNIVERSAL_TIME_OFFSET ( 5, 0, .BEHIND. ) ;
#30 = CC_DESIGN_APPROVAL ( #154, ( #129 ) ) ;
#31 = PRODUCT_DEFINITION ( 'UNKNOWN', '', #74, #140 ) ;
#32 = FACE_OUTER_BOUND ( 'NONE', #8, .T. ) ;
#33 = PERSON_AND_ORGANIZATION ( #56, #20 ) ;
#34 = ORIENTED_EDGE ( 'NONE', *, *, #170, .F. ) ;
#35 = MECHANICAL_CONTEXT ( 'NONE', #18, 'mechanical' ) ;
#36 = VERTEX_POINT ( 'NONE', #23 ) ;
#37 = PERSON_AND_ORGANIZATION_ROLE ( 'classification_officer' ) ;
#38 = CC_DESIGN_SECURITY_CLASSIFICATION ( #129, ( #74 ) ) ;
#39 = EDGE_CURVE ( 'NONE', #104, #19, #136, .T. ) ;
#40 = ADVANCED_FACE ( 'NONE', ( #61 ), #161, .T. ) ;
#41 = CARTESIAN_POINT ( 'NONE',  ( 0.0000000000000000000, 0.0000000000000000000, 1.000000000000000000 ) ) ;
#42 = DIRECTION ( 'NONE',  ( 0.0000000000000000000, 0.0000000000000000000, 1.000000000000000000 ) ) ;
#43 = APPROVAL ( #64, 'UNSPECIFIED' ) ;
#44 = ORIENTED_EDGE ( 'NONE', *, *, #9, .F. ) ;
#45 = ADVANCED_BREP_SHAPE_REPRESENTATION ( 'Web Model 46098_48924', ( #27, #13 ), #155 ) ;
#46 = COORDINATED_UNIVERSAL_TIME_OFFSET ( 5, 0, .BEHIND. ) ;
#47 = PRODUCT_RELATED_PRODUCT_CATEGORY ( 'detail', '', ( #69 ) ) ;
#48 = LOCAL_TIME ( 15, 51, 32.00000000000000000, #86 ) ;
#49 = CC_DESIGN_APPROVAL ( #43, ( #31 ) ) ;
#50 = APPLICATION_CONTEXT ( 'configuration controlled 3d designs of mechanical parts and assemblies' ) ;
#51 = APPROVAL_STATUS ( 'not_yet_approved' ) ;
#52 = DIRECTION ( 'NONE',  ( 1.000000000000000000, 0.0000000000000000000, 0.0000000000000000000 ) ) ;
#53 = CARTESIAN_POINT ( 'NONE',  ( 0.0000000000000000000, 0.0000000000000000000, 1.000000000000000000 ) ) ;
#54 = CARTESIAN_POINT ( 'NONE',  ( -12.70000000000000500, 0.0000000000000000000, 1.000000000000000000 ) ) ;
#55 = CALENDAR_DATE ( 2017, 1, 3 ) ;
#56 = PERSON ( 'UNSPECIFIED', 'UNSPECIFIED', 'UNSPECIFIED', ('UNSPECIFIED'), ('UNSPECIFIED'), ('UNSPECIFIED') ) ;
#57 = ORIENTED_EDGE ( 'NONE', *, *, #170, .T. ) ;
#58 = CC_DESIGN_PERSON_AND_ORGANIZATION_ASSIGNMENT ( #89, #78, ( #31 ) ) ;
#59 = APPROVAL_DATE_TIME ( #90, #87 ) ;
#60 = AXIS2_PLACEMENT_3D ( 'NONE', #1, #134, #119 ) ;
#61 = FACE_OUTER_BOUND ( 'NONE', #126, .T. ) ;
#62 = COORDINATED_UNIVERSAL_TIME_OFFSET ( 5, 0, .BEHIND. ) ;
#63 = CALENDAR_DATE ( 2017, 1, 3 ) ;
#64 = APPROVAL_STATUS ( 'not_yet_approved' ) ;
#65 =( LENGTH_UNIT ( ) NAMED_UNIT ( * ) SI_UNIT ( .MILLI., .METRE. ) );
#66 = LOCAL_TIME ( 15, 51, 32.00000000000000000, #62 ) ;
#67 = CC_DESIGN_DATE_AND_TIME_ASSIGNMENT ( #174, #3, ( #31 ) ) ;
#68 = AXIS2_PLACEMENT_3D ( 'NONE', #73, #22, #135 ) ;
#69 = PRODUCT ( 'Web Model 46098_48924', 'Web Model 46098_48924', '', ( #35 ) ) ;
#70 = CLOSED_SHELL ( 'NONE', ( #164, #40, #150, #92 ) ) ;
#71 = UNCERTAINTY_MEASURE_WITH_UNIT (LENGTH_MEASURE( 1.000000000000000100E-005 ), #65, 'distance_accuracy_value', 'NONE');
#72 = APPROVAL_DATE_TIME ( #115, #154 ) ;
#73 = CARTESIAN_POINT ( 'NONE',  ( 0.0000000000000000000, 0.0000000000000000000, 1.000000000000000000 ) ) ;
#74 = PRODUCT_DEFINITION_FORMATION_WITH_SPECIFIED_SOURCE ( 'ANY', '', #69, .NOT_KNOWN. ) ;
#75 = AXIS2_PLACEMENT_3D ( 'NONE', #5, #93, #14 ) ;
#76 = VERTEX_POINT ( 'NONE', #6 ) ;
#77 = LOCAL_TIME ( 15, 51, 32.00000000000000000, #158 ) ;
#78 = PERSON_AND_ORGANIZATION_ROLE ( 'creator' ) ;
#79 = DIRECTION ( 'NONE',  ( -0.0000000000000000000, -0.0000000000000000000, -1.000000000000000000 ) ) ;
#80 = CARTESIAN_POINT ( 'NONE',  ( -12.70000000000000500, 0.0000000000000000000, 1.000000000000000000 ) ) ;
#81 = APPROVAL_PERSON_ORGANIZATION ( #120, #154, #149 ) ;
#82 = DIRECTION ( 'NONE',  ( 0.0000000000000000000, 0.0000000000000000000, 1.000000000000000000 ) ) ;
#83 = PERSON_AND_ORGANIZATION ( #56, #20 ) ;
#84 =( NAMED_UNIT ( * ) SI_UNIT ( $, .STERADIAN. ) SOLID_ANGLE_UNIT ( ) );
#85 = EDGE_CURVE ( 'NONE', #19, #76, #175, .T. ) ;
#86 = COORDINATED_UNIVERSAL_TIME_OFFSET ( 5, 0, .BEHIND. ) ;
#87 = APPROVAL ( #91, 'UNSPECIFIED' ) ;
#88 = AXIS2_PLACEMENT_3D ( 'NONE', #41, #141, #52 ) ;
#89 = PERSON_AND_ORGANIZATION ( #56, #20 ) ;
#90 = DATE_AND_TIME ( #55, #66 ) ;
#91 = APPROVAL_STATUS ( 'not_yet_approved' ) ;
#92 = ADVANCED_FACE ( 'NONE', ( #172 ), #94, .F. ) ;
#93 = DIRECTION ( 'NONE',  ( 0.0000000000000000000, 0.0000000000000000000, 1.000000000000000000 ) ) ;
#94 = PLANE ( 'NONE',  #130 ) ;
#95 = DIRECTION ( 'NONE',  ( -1.000000000000000000, 0.0000000000000000000, 0.0000000000000000000 ) ) ;
#96 = CC_DESIGN_APPROVAL ( #87, ( #74 ) ) ;
#97 = ORIENTED_EDGE ( 'NONE', *, *, #85, .T. ) ;
#98 = APPROVAL_PERSON_ORGANIZATION ( #165, #87, #12 ) ;
#99 = VECTOR ( 'NONE', #153, 1000.000000000000000 ) ;
#100 = APPROVAL_PERSON_ORGANIZATION ( #83, #43, #162 ) ;
#101 = PRODUCT_DEFINITION_SHAPE ( 'NONE', 'NONE',  #31 ) ;
#102 = VECTOR ( 'NONE', #111, 1000.000000000000000 ) ;
#103 = LOCAL_TIME ( 15, 51, 32.00000000000000000, #29 ) ;
#104 = VERTEX_POINT ( 'NONE', #80 ) ;
#105 = CC_DESIGN_PERSON_AND_ORGANIZATION_ASSIGNMENT ( #144, #107, ( #74 ) ) ;
#106 = APPLICATION_PROTOCOL_DEFINITION ( 'international standard', 'config_control_design', 1994, #18 ) ;
#107 = PERSON_AND_ORGANIZATION_ROLE ( 'creator' ) ;
#108 = ORIENTED_EDGE ( 'NONE', *, *, #2, .F. ) ;
#109 = CARTESIAN_POINT ( 'NONE',  ( 0.0000000000000000000, 0.0000000000000000000, 1.000000000000000000 ) ) ;
#110 = ORIENTED_EDGE ( 'NONE', *, *, #2, .T. ) ;
#111 = DIRECTION ( 'NONE',  ( -0.0000000000000000000, -0.0000000000000000000, -1.000000000000000000 ) ) ;
#112 = DIRECTION ( 'NONE',  ( -0.0000000000000000000, -0.0000000000000000000, -1.000000000000000000 ) ) ;
#113 = CYLINDRICAL_SURFACE ( 'NONE', #163, 12.70000000000000500 ) ;
#114 = EDGE_LOOP ( 'NONE', ( #44, #97, #110, #34 ) ) ;
#115 = DATE_AND_TIME ( #152, #11 ) ;
#116 = CC_DESIGN_PERSON_AND_ORGANIZATION_ASSIGNMENT ( #159, #26, ( #74 ) ) ;
#117 = AXIS2_PLACEMENT_3D ( 'NONE', #109, #79, #151 ) ;
#118 = ORIENTED_EDGE ( 'NONE', *, *, #85, .F. ) ;
#119 = DIRECTION ( 'NONE',  ( 1.000000000000000000, 0.0000000000000000000, 0.0000000000000000000 ) ) ;
#120 = PERSON_AND_ORGANIZATION ( #56, #20 ) ;
#121 = ORIENTED_EDGE ( 'NONE', *, *, #9, .T. ) ;
#122 = CALENDAR_DATE ( 2017, 1, 3 ) ;
#123 = DIRECTION ( 'NONE',  ( 1.000000000000000000, 0.0000000000000000000, 0.0000000000000000000 ) ) ;
#124 = FACE_OUTER_BOUND ( 'NONE', #114, .T. ) ;
#125 = SECURITY_CLASSIFICATION_LEVEL ( 'unclassified' ) ;
#126 = EDGE_LOOP ( 'NONE', ( #118, #131, #57, #157 ) ) ;
#127 = PERSON_AND_ORGANIZATION ( #56, #20 ) ;
#128 = CARTESIAN_POINT ( 'NONE',  ( 0.0000000000000000000, 0.0000000000000000000, 0.0000000000000000000 ) ) ;
#129 = SECURITY_CLASSIFICATION ( '', '', #125 ) ;
#130 = AXIS2_PLACEMENT_3D ( 'NONE', #128, #42, #142 ) ;
#131 = ORIENTED_EDGE ( 'NONE', *, *, #39, .F. ) ;
#132 = CIRCLE ( 'NONE', #68, 12.70000000000000500 ) ;
#133 = SHAPE_DEFINITION_REPRESENTATION ( #101, #45 ) ;
#134 = DIRECTION ( 'NONE',  ( 0.0000000000000000000, 0.0000000000000000000, 1.000000000000000000 ) ) ;
#135 = DIRECTION ( 'NONE',  ( 1.000000000000000000, 0.0000000000000000000, 0.0000000000000000000 ) ) ;
#136 = CIRCLE ( 'NONE', #88, 12.70000000000000500 ) ;
#137 = CC_DESIGN_PERSON_AND_ORGANIZATION_ASSIGNMENT ( #127, #37, ( #129 ) ) ;
#138 = PERSON_AND_ORGANIZATION_ROLE ( 'design_owner' ) ;
#139 = DATE_TIME_ROLE ( 'classification_date' ) ;
#140 = DESIGN_CONTEXT ( 'detailed design', #50, 'design' ) ;
#141 = DIRECTION ( 'NONE',  ( 0.0000000000000000000, 0.0000000000000000000, 1.000000000000000000 ) ) ;
#142 = DIRECTION ( 'NONE',  ( 1.000000000000000000, 0.0000000000000000000, -0.0000000000000000000 ) ) ;
#143 = ORIENTED_EDGE ( 'NONE', *, *, #39, .T. ) ;
#144 = PERSON_AND_ORGANIZATION ( #56, #20 ) ;
#145 = CC_DESIGN_DATE_AND_TIME_ASSIGNMENT ( #156, #139, ( #129 ) ) ;
#146 = AXIS2_PLACEMENT_3D ( 'NONE', #53, #82, #7 ) ;
#147 = CARTESIAN_POINT ( 'NONE',  ( 12.70000000000000500, 1.555301434917139000E-015, 1.000000000000000000 ) ) ;
#148 = APPLICATION_PROTOCOL_DEFINITION ( 'international standard', 'config_control_design', 1994, #50 ) ;
#149 = APPROVAL_ROLE ( '' ) ;
#150 = ADVANCED_FACE ( 'NONE', ( #32 ), #168, .T. ) ;
#151 = DIRECTION ( 'NONE',  ( -1.000000000000000000, 0.0000000000000000000, 0.0000000000000000000 ) ) ;
#152 = CALENDAR_DATE ( 2017, 1, 3 ) ;
#153 = DIRECTION ( 'NONE',  ( -0.0000000000000000000, -0.0000000000000000000, -1.000000000000000000 ) ) ;
#154 = APPROVAL ( #51, 'UNSPECIFIED' ) ;
#155 =( GEOMETRIC_REPRESENTATION_CONTEXT ( 3 ) GLOBAL_UNCERTAINTY_ASSIGNED_CONTEXT ( ( #71 ) ) GLOBAL_UNIT_ASSIGNED_CONTEXT ( ( #65, #169, #84 ) ) REPRESENTATION_CONTEXT ( 'NONE', 'WORKASPACE' ) );
#156 = DATE_AND_TIME ( #15, #48 ) ;
#157 = ORIENTED_EDGE ( 'NONE', *, *, #21, .T. ) ;
#158 = COORDINATED_UNIVERSAL_TIME_OFFSET ( 5, 0, .BEHIND. ) ;
#159 = PERSON_AND_ORGANIZATION ( #56, #20 ) ;
#160 = ORIENTED_EDGE ( 'NONE', *, *, #21, .F. ) ;
#161 = CYLINDRICAL_SURFACE ( 'NONE', #117, 12.70000000000000500 ) ;
#162 = APPROVAL_ROLE ( '' ) ;
#163 = AXIS2_PLACEMENT_3D ( 'NONE', #17, #112, #95 ) ;
#164 = ADVANCED_FACE ( 'NONE', ( #124 ), #113, .T. ) ;
#165 = PERSON_AND_ORGANIZATION ( #56, #20 ) ;
#166 = DATE_AND_TIME ( #63, #103 ) ;
#167 = CARTESIAN_POINT ( 'NONE',  ( 12.70000000000000500, 1.555301434917139000E-015, 1.000000000000000000 ) ) ;
#168 = PLANE ( 'NONE',  #146 ) ;
#169 =( NAMED_UNIT ( * ) PLANE_ANGLE_UNIT ( ) SI_UNIT ( $, .RADIAN. ) );
#170 = EDGE_CURVE ( 'NONE', #104, #36, #173, .T. ) ;
#171 = CIRCLE ( 'NONE', #75, 12.70000000000000500 ) ;
#172 = FACE_OUTER_BOUND ( 'NONE', #4, .T. ) ;
#173 = LINE ( 'NONE', #54, #99 ) ;
#174 = DATE_AND_TIME ( #122, #77 ) ;
#175 = LINE ( 'NONE', #167, #102 ) ;
ENDSEC;
END-ISO-10303-21;
