ISO-10303-21;
HEADER;
FILE_DESCRIPTION (( 'STEP AP203' ),
    '1' );
FILE_NAME ('Web Model 68379_48905.step',
    '2017-03-01T19:08:26',
    ( '' ),
    ( '' ),
    'SwSTEP 2.0',
    'SolidWorks 2016',
    '' );
FILE_SCHEMA (( 'CONFIG_CONTROL_DESIGN' ));
ENDSEC;

DATA;
#1 = ADVANCED_FACE ( 'NONE', ( #101 ), #140, .F. ) ;
#2 = EDGE_CURVE ( 'NONE', #45, #7, #127, .T. ) ;
#3 = VECTOR ( 'NONE', #95, 1000.000000000000000 ) ;
#4 = CC_DESIGN_DATE_AND_TIME_ASSIGNMENT ( #164, #218, ( #195 ) ) ;
#5 = CARTESIAN_POINT ( 'NONE',  ( 37.50000000000000000, -37.49999999999999300, 3.000000000000000000 ) ) ;
#6 = DATE_AND_TIME ( #35, #31 ) ;
#7 = VERTEX_POINT ( 'NONE', #177 ) ;
#8 = SHAPE_DEFINITION_REPRESENTATION ( #144, #23 ) ;
#9 = CARTESIAN_POINT ( 'NONE',  ( 37.50000000000000000, -37.49999999999999300, 3.000000000000000000 ) ) ;
#10 = DESIGN_CONTEXT ( 'detailed design', #38, 'design' ) ;
#11 = DIRECTION ( 'NONE',  ( -0.0000000000000000000, -0.0000000000000000000, -1.000000000000000000 ) ) ;
#12 = CARTESIAN_POINT ( 'NONE',  ( -37.50000000000000700, 37.49999999999999300, 3.000000000000000000 ) ) ;
#13 = DIRECTION ( 'NONE',  ( -0.0000000000000000000, -0.0000000000000000000, -1.000000000000000000 ) ) ;
#14 = ORIENTED_EDGE ( 'NONE', *, *, #145, .F. ) ;
#15 = APPROVAL_DATE_TIME ( #210, #206 ) ;
#16 = APPROVAL_ROLE ( '' ) ;
#17 = DIRECTION ( 'NONE',  ( -1.000000000000000000, 0.0000000000000000000, 0.0000000000000000000 ) ) ;
#18 = DIRECTION ( 'NONE',  ( 1.000000000000000000, 0.0000000000000000000, 0.0000000000000000000 ) ) ;
#19 = DIRECTION ( 'NONE',  ( 9.251858538542971600E-017, -1.000000000000000000, 0.0000000000000000000 ) ) ;
#20 = EDGE_CURVE ( 'NONE', #41, #125, #133, .T. ) ;
#21 = PRODUCT_DEFINITION_FORMATION_WITH_SPECIFIED_SOURCE ( 'ANY', '', #26, .NOT_KNOWN. ) ;
#22 = VERTEX_POINT ( 'NONE', #190 ) ;
#23 = ADVANCED_BREP_SHAPE_REPRESENTATION ( 'Web Model 68379_48905', ( #130, #169 ), #146 ) ;
#24 = VECTOR ( 'NONE', #157, 1000.000000000000000 ) ;
#25 = DIRECTION ( 'NONE',  ( -9.251858538542970300E-017, 1.000000000000000000, 0.0000000000000000000 ) ) ;
#26 = PRODUCT ( 'Web Model 68379_48905', 'Web Model 68379_48905', '', ( #104 ) ) ;
#27 = ORIENTED_EDGE ( 'NONE', *, *, #168, .F. ) ;
#28 = DIRECTION ( 'NONE',  ( 1.000000000000000000, 1.850371707708594300E-016, -0.0000000000000000000 ) ) ;
#29 =( NAMED_UNIT ( * ) SI_UNIT ( $, .STERADIAN. ) SOLID_ANGLE_UNIT ( ) );
#30 = PERSON_AND_ORGANIZATION_ROLE ( 'creator' ) ;
#31 = LOCAL_TIME ( 14, 8, 26.00000000000000000, #36 ) ;
#32 = EDGE_CURVE ( 'NONE', #22, #143, #200, .T. ) ;
#33 = APPROVAL ( #175, 'UNSPECIFIED' ) ;
#34 = CARTESIAN_POINT ( 'NONE',  ( 37.50000000000000000, 37.49999999999999300, 3.000000000000000000 ) ) ;
#35 = CALENDAR_DATE ( 2017, 1, 3 ) ;
#36 = COORDINATED_UNIVERSAL_TIME_OFFSET ( 5, 0, .BEHIND. ) ;
#37 = AXIS2_PLACEMENT_3D ( 'NONE', #34, #17, #162 ) ;
#38 = APPLICATION_CONTEXT ( 'configuration controlled 3d designs of mechanical parts and assemblies' ) ;
#39 = APPROVAL_DATE_TIME ( #6, #59 ) ;
#40 = PERSON_AND_ORGANIZATION ( #225, #202 ) ;
#41 = VERTEX_POINT ( 'NONE', #135 ) ;
#42 = LOCAL_TIME ( 14, 8, 26.00000000000000000, #75 ) ;
#43 = ADVANCED_FACE ( 'NONE', ( #215 ), #174, .F. ) ;
#44 = EDGE_CURVE ( 'NONE', #41, #143, #105, .T. ) ;
#45 = VERTEX_POINT ( 'NONE', #212 ) ;
#46 = CC_DESIGN_APPROVAL ( #33, ( #21 ) ) ;
#47 = PERSON_AND_ORGANIZATION ( #225, #202 ) ;
#48 = APPLICATION_PROTOCOL_DEFINITION ( 'international standard', 'config_control_design', 1994, #38 ) ;
#49 = DIRECTION ( 'NONE',  ( 0.0000000000000000000, 0.0000000000000000000, 1.000000000000000000 ) ) ;
#50 = CALENDAR_DATE ( 2017, 1, 3 ) ;
#51 = UNCERTAINTY_MEASURE_WITH_UNIT (LENGTH_MEASURE( 1.000000000000000100E-005 ), #54, 'distance_accuracy_value', 'NONE');
#52 = DIRECTION ( 'NONE',  ( -1.000000000000000000, 0.0000000000000000000, -0.0000000000000000000 ) ) ;
#53 = EDGE_LOOP ( 'NONE', ( #172, #117, #159, #165 ) ) ;
#54 =( LENGTH_UNIT ( ) NAMED_UNIT ( * ) SI_UNIT ( .MILLI., .METRE. ) );
#55 =( NAMED_UNIT ( * ) PLANE_ANGLE_UNIT ( ) SI_UNIT ( $, .RADIAN. ) );
#56 = DIRECTION ( 'NONE',  ( 1.000000000000000000, 9.251858538542970300E-017, -0.0000000000000000000 ) ) ;
#57 = VECTOR ( 'NONE', #19, 1000.000000000000000 ) ;
#58 = CC_DESIGN_PERSON_AND_ORGANIZATION_ASSIGNMENT ( #224, #30, ( #21 ) ) ;
#59 = APPROVAL ( #103, 'UNSPECIFIED' ) ;
#60 = AXIS2_PLACEMENT_3D ( 'NONE', #66, #153, #63 ) ;
#61 = CALENDAR_DATE ( 2017, 1, 3 ) ;
#62 = CARTESIAN_POINT ( 'NONE',  ( -37.50000000000000700, 37.49999999999999300, 3.000000000000000000 ) ) ;
#63 = DIRECTION ( 'NONE',  ( 0.0000000000000000000, -0.0000000000000000000, -1.000000000000000000 ) ) ;
#64 = APPROVAL_DATE_TIME ( #123, #33 ) ;
#65 = EDGE_LOOP ( 'NONE', ( #217, #154, #148, #109 ) ) ;
#66 = CARTESIAN_POINT ( 'NONE',  ( 37.50000000000000000, 37.49999999999999300, 3.000000000000000000 ) ) ;
#67 = CARTESIAN_POINT ( 'NONE',  ( 0.0000000000000000000, 0.0000000000000000000, 0.0000000000000000000 ) ) ;
#68 = LOCAL_TIME ( 14, 8, 26.00000000000000000, #94 ) ;
#69 = LOCAL_TIME ( 14, 8, 26.00000000000000000, #188 ) ;
#70 = DIRECTION ( 'NONE',  ( 0.0000000000000000000, 0.0000000000000000000, -1.000000000000000000 ) ) ;
#71 = CC_DESIGN_PERSON_AND_ORGANIZATION_ASSIGNMENT ( #136, #139, ( #21 ) ) ;
#72 = CC_DESIGN_APPROVAL ( #59, ( #81 ) ) ;
#73 = CARTESIAN_POINT ( 'NONE',  ( 37.50000000000000000, 37.49999999999999300, 0.0000000000000000000 ) ) ;
#74 = VECTOR ( 'NONE', #13, 1000.000000000000000 ) ;
#75 = COORDINATED_UNIVERSAL_TIME_OFFSET ( 5, 0, .BEHIND. ) ;
#76 = APPLICATION_PROTOCOL_DEFINITION ( 'international standard', 'config_control_design', 1994, #138 ) ;
#77 = CARTESIAN_POINT ( 'NONE',  ( 37.50000000000000000, 37.49999999999999300, 3.000000000000000000 ) ) ;
#78 = DIRECTION ( 'NONE',  ( 9.251858538542971600E-017, -1.000000000000000000, 0.0000000000000000000 ) ) ;
#79 = APPROVAL_PERSON_ORGANIZATION ( #120, #206, #100 ) ;
#80 = VECTOR ( 'NONE', #111, 1000.000000000000000 ) ;
#81 = SECURITY_CLASSIFICATION ( '', '', #178 ) ;
#82 = CC_DESIGN_SECURITY_CLASSIFICATION ( #81, ( #21 ) ) ;
#83 = VECTOR ( 'NONE', #11, 1000.000000000000000 ) ;
#84 = CARTESIAN_POINT ( 'NONE',  ( -37.50000000000000000, -37.50000000000000700, 3.000000000000000000 ) ) ;
#85 = CARTESIAN_POINT ( 'NONE',  ( -37.50000000000000700, 37.49999999999999300, 0.0000000000000000000 ) ) ;
#86 = CARTESIAN_POINT ( 'NONE',  ( 37.50000000000000000, 37.49999999999999300, 0.0000000000000000000 ) ) ;
#87 = DIRECTION ( 'NONE',  ( -1.000000000000000000, 0.0000000000000000000, -0.0000000000000000000 ) ) ;
#88 = ORIENTED_EDGE ( 'NONE', *, *, #233, .F. ) ;
#89 = APPROVAL_STATUS ( 'not_yet_approved' ) ;
#90 = AXIS2_PLACEMENT_3D ( 'NONE', #9, #196, #211 ) ;
#91 = DIRECTION ( 'NONE',  ( -1.000000000000000000, 0.0000000000000000000, 0.0000000000000000000 ) ) ;
#92 = CARTESIAN_POINT ( 'NONE',  ( 37.50000000000000000, 37.49999999999999300, 0.0000000000000000000 ) ) ;
#93 = DIRECTION ( 'NONE',  ( 0.0000000000000000000, 0.0000000000000000000, -1.000000000000000000 ) ) ;
#94 = COORDINATED_UNIVERSAL_TIME_OFFSET ( 5, 0, .BEHIND. ) ;
#95 = DIRECTION ( 'NONE',  ( -0.0000000000000000000, -0.0000000000000000000, -1.000000000000000000 ) ) ;
#96 = CC_DESIGN_PERSON_AND_ORGANIZATION_ASSIGNMENT ( #216, #124, ( #81 ) ) ;
#97 = PRODUCT_RELATED_PRODUCT_CATEGORY ( 'detail', '', ( #26 ) ) ;
#98 = ADVANCED_FACE ( 'NONE', ( #171 ), #176, .F. ) ;
#99 = ORIENTED_EDGE ( 'NONE', *, *, #32, .F. ) ;
#100 = APPROVAL_ROLE ( '' ) ;
#101 = FACE_OUTER_BOUND ( 'NONE', #126, .T. ) ;
#102 = LINE ( 'NONE', #84, #83 ) ;
#103 = APPROVAL_STATUS ( 'not_yet_approved' ) ;
#104 = MECHANICAL_CONTEXT ( 'NONE', #138, 'mechanical' ) ;
#105 = LINE ( 'NONE', #152, #74 ) ;
#106 = CARTESIAN_POINT ( 'NONE',  ( -37.50000000000000000, -37.50000000000000700, 3.000000000000000000 ) ) ;
#107 = CC_DESIGN_DATE_AND_TIME_ASSIGNMENT ( #235, #173, ( #81 ) ) ;
#108 = ORIENTED_EDGE ( 'NONE', *, *, #221, .T. ) ;
#109 = ORIENTED_EDGE ( 'NONE', *, *, #20, .T. ) ;
#110 = APPROVAL_PERSON_ORGANIZATION ( #185, #33, #16 ) ;
#111 = DIRECTION ( 'NONE',  ( 1.000000000000000000, 1.850371707708594300E-016, -0.0000000000000000000 ) ) ;
#112 = CARTESIAN_POINT ( 'NONE',  ( -37.50000000000000700, 37.49999999999999300, 3.000000000000000000 ) ) ;
#113 = AXIS2_PLACEMENT_3D ( 'NONE', #62, #56, #25 ) ;
#114 = PLANE ( 'NONE',  #132 ) ;
#115 = ORIENTED_EDGE ( 'NONE', *, *, #158, .F. ) ;
#116 = ADVANCED_FACE ( 'NONE', ( #209 ), #220, .F. ) ;
#117 = ORIENTED_EDGE ( 'NONE', *, *, #221, .F. ) ;
#118 = CALENDAR_DATE ( 2017, 1, 3 ) ;
#119 = ORIENTED_EDGE ( 'NONE', *, *, #194, .T. ) ;
#120 = PERSON_AND_ORGANIZATION ( #225, #202 ) ;
#121 = EDGE_LOOP ( 'NONE', ( #115, #88, #99, #199 ) ) ;
#122 = ORIENTED_EDGE ( 'NONE', *, *, #32, .T. ) ;
#123 = DATE_AND_TIME ( #214, #42 ) ;
#124 = PERSON_AND_ORGANIZATION_ROLE ( 'classification_officer' ) ;
#125 = VERTEX_POINT ( 'NONE', #112 ) ;
#126 = EDGE_LOOP ( 'NONE', ( #122, #229, #191, #108 ) ) ;
#127 = LINE ( 'NONE', #219, #80 ) ;
#128 = COORDINATED_UNIVERSAL_TIME_OFFSET ( 5, 0, .BEHIND. ) ;
#129 = ORIENTED_EDGE ( 'NONE', *, *, #194, .F. ) ;
#130 = MANIFOLD_SOLID_BREP ( 'Extrude1', #223 ) ;
#131 = ORIENTED_EDGE ( 'NONE', *, *, #158, .T. ) ;
#132 = AXIS2_PLACEMENT_3D ( 'NONE', #192, #93, #52 ) ;
#133 = LINE ( 'NONE', #77, #230 ) ;
#134 = VERTEX_POINT ( 'NONE', #180 ) ;
#135 = CARTESIAN_POINT ( 'NONE',  ( 37.50000000000000000, 37.49999999999999300, 3.000000000000000000 ) ) ;
#136 = PERSON_AND_ORGANIZATION ( #225, #202 ) ;
#137 = LINE ( 'NONE', #189, #149 ) ;
#138 = APPLICATION_CONTEXT ( 'configuration controlled 3d designs of mechanical parts and assemblies' ) ;
#139 = PERSON_AND_ORGANIZATION_ROLE ( 'design_supplier' ) ;
#140 = PLANE ( 'NONE',  #37 ) ;
#141 = ORIENTED_EDGE ( 'NONE', *, *, #233, .T. ) ;
#142 = FACE_OUTER_BOUND ( 'NONE', #65, .T. ) ;
#143 = VERTEX_POINT ( 'NONE', #73 ) ;
#144 = PRODUCT_DEFINITION_SHAPE ( 'NONE', 'NONE',  #195 ) ;
#145 = EDGE_CURVE ( 'NONE', #125, #45, #166, .T. ) ;
#146 =( GEOMETRIC_REPRESENTATION_CONTEXT ( 3 ) GLOBAL_UNCERTAINTY_ASSIGNED_CONTEXT ( ( #51 ) ) GLOBAL_UNIT_ASSIGNED_CONTEXT ( ( #54, #55, #29 ) ) REPRESENTATION_CONTEXT ( 'NONE', 'WORKASPACE' ) );
#147 = VECTOR ( 'NONE', #78, 1000.000000000000000 ) ;
#148 = ORIENTED_EDGE ( 'NONE', *, *, #181, .T. ) ;
#149 = VECTOR ( 'NONE', #198, 1000.000000000000000 ) ;
#150 = APPROVAL_PERSON_ORGANIZATION ( #47, #59, #156 ) ;
#151 = ADVANCED_FACE ( 'NONE', ( #184 ), #114, .T. ) ;
#152 = CARTESIAN_POINT ( 'NONE',  ( 37.50000000000000000, 37.49999999999999300, 3.000000000000000000 ) ) ;
#153 = DIRECTION ( 'NONE',  ( 0.0000000000000000000, -1.000000000000000000, 0.0000000000000000000 ) ) ;
#154 = ORIENTED_EDGE ( 'NONE', *, *, #2, .T. ) ;
#155 = LINE ( 'NONE', #170, #147 ) ;
#156 = APPROVAL_ROLE ( '' ) ;
#157 = DIRECTION ( 'NONE',  ( -0.0000000000000000000, -0.0000000000000000000, -1.000000000000000000 ) ) ;
#158 = EDGE_CURVE ( 'NONE', #207, #134, #155, .T. ) ;
#159 = ORIENTED_EDGE ( 'NONE', *, *, #2, .F. ) ;
#160 = AXIS2_PLACEMENT_3D ( 'NONE', #106, #70, #87 ) ;
#161 = PERSON_AND_ORGANIZATION ( #225, #202 ) ;
#162 = DIRECTION ( 'NONE',  ( 0.0000000000000000000, 0.0000000000000000000, 1.000000000000000000 ) ) ;
#163 = PERSON_AND_ORGANIZATION_ROLE ( 'design_owner' ) ;
#164 = DATE_AND_TIME ( #118, #69 ) ;
#165 = ORIENTED_EDGE ( 'NONE', *, *, #168, .T. ) ;
#166 = LINE ( 'NONE', #232, #57 ) ;
#167 = LINE ( 'NONE', #227, #226 ) ;
#168 = EDGE_CURVE ( 'NONE', #45, #134, #102, .T. ) ;
#169 = AXIS2_PLACEMENT_3D ( 'NONE', #67, #49, #18 ) ;
#170 = CARTESIAN_POINT ( 'NONE',  ( -37.50000000000000700, 37.49999999999999300, 0.0000000000000000000 ) ) ;
#171 = FACE_OUTER_BOUND ( 'NONE', #53, .T. ) ;
#172 = ORIENTED_EDGE ( 'NONE', *, *, #205, .T. ) ;
#173 = DATE_TIME_ROLE ( 'classification_date' ) ;
#174 = PLANE ( 'NONE',  #60 ) ;
#175 = APPROVAL_STATUS ( 'not_yet_approved' ) ;
#176 = PLANE ( 'NONE',  #90 ) ;
#177 = CARTESIAN_POINT ( 'NONE',  ( 37.50000000000000000, -37.49999999999999300, 3.000000000000000000 ) ) ;
#178 = SECURITY_CLASSIFICATION_LEVEL ( 'unclassified' ) ;
#179 = LINE ( 'NONE', #12, #3 ) ;
#180 = CARTESIAN_POINT ( 'NONE',  ( -37.50000000000000000, -37.50000000000000700, 0.0000000000000000000 ) ) ;
#181 = EDGE_CURVE ( 'NONE', #7, #41, #137, .T. ) ;
#182 = CC_DESIGN_PERSON_AND_ORGANIZATION_ASSIGNMENT ( #40, #163, ( #26 ) ) ;
#183 = LOCAL_TIME ( 14, 8, 26.00000000000000000, #128 ) ;
#184 = FACE_OUTER_BOUND ( 'NONE', #121, .T. ) ;
#185 = PERSON_AND_ORGANIZATION ( #225, #202 ) ;
#186 = ADVANCED_FACE ( 'NONE', ( #142 ), #228, .F. ) ;
#187 = ORIENTED_EDGE ( 'NONE', *, *, #44, .T. ) ;
#188 = COORDINATED_UNIVERSAL_TIME_OFFSET ( 5, 0, .BEHIND. ) ;
#189 = CARTESIAN_POINT ( 'NONE',  ( 37.50000000000000000, 37.49999999999999300, 3.000000000000000000 ) ) ;
#190 = CARTESIAN_POINT ( 'NONE',  ( 37.50000000000000000, -37.49999999999999300, 0.0000000000000000000 ) ) ;
#191 = ORIENTED_EDGE ( 'NONE', *, *, #181, .F. ) ;
#192 = CARTESIAN_POINT ( 'NONE',  ( -37.50000000000000000, -37.50000000000000700, 0.0000000000000000000 ) ) ;
#193 = PERSON_AND_ORGANIZATION_ROLE ( 'creator' ) ;
#194 = EDGE_CURVE ( 'NONE', #125, #207, #179, .T. ) ;
#195 = PRODUCT_DEFINITION ( 'UNKNOWN', '', #21, #10 ) ;
#196 = DIRECTION ( 'NONE',  ( -1.850371707708594100E-016, 1.000000000000000000, 0.0000000000000000000 ) ) ;
#197 = EDGE_LOOP ( 'NONE', ( #141, #129, #236, #187 ) ) ;
#198 = DIRECTION ( 'NONE',  ( -0.0000000000000000000, 1.000000000000000000, -0.0000000000000000000 ) ) ;
#199 = ORIENTED_EDGE ( 'NONE', *, *, #205, .F. ) ;
#200 = LINE ( 'NONE', #92, #204 ) ;
#201 = DIRECTION ( 'NONE',  ( -0.0000000000000000000, 1.000000000000000000, -0.0000000000000000000 ) ) ;
#202 = ORGANIZATION ( 'UNSPECIFIED', 'UNSPECIFIED', '' ) ;
#203 = EDGE_LOOP ( 'NONE', ( #131, #27, #14, #119 ) ) ;
#204 = VECTOR ( 'NONE', #201, 1000.000000000000000 ) ;
#205 = EDGE_CURVE ( 'NONE', #134, #22, #167, .T. ) ;
#206 = APPROVAL ( #89, 'UNSPECIFIED' ) ;
#207 = VERTEX_POINT ( 'NONE', #85 ) ;
#208 = VECTOR ( 'NONE', #91, 1000.000000000000000 ) ;
#209 = FACE_OUTER_BOUND ( 'NONE', #203, .T. ) ;
#210 = DATE_AND_TIME ( #61, #68 ) ;
#211 = DIRECTION ( 'NONE',  ( -1.000000000000000000, -1.850371707708594100E-016, 0.0000000000000000000 ) ) ;
#212 = CARTESIAN_POINT ( 'NONE',  ( -37.50000000000000000, -37.50000000000000700, 3.000000000000000000 ) ) ;
#213 = LINE ( 'NONE', #5, #24 ) ;
#214 = CALENDAR_DATE ( 2017, 1, 3 ) ;
#215 = FACE_OUTER_BOUND ( 'NONE', #197, .T. ) ;
#216 = PERSON_AND_ORGANIZATION ( #225, #202 ) ;
#217 = ORIENTED_EDGE ( 'NONE', *, *, #145, .T. ) ;
#218 = DATE_TIME_ROLE ( 'creation_date' ) ;
#219 = CARTESIAN_POINT ( 'NONE',  ( 37.50000000000000000, -37.49999999999999300, 3.000000000000000000 ) ) ;
#220 = PLANE ( 'NONE',  #113 ) ;
#221 = EDGE_CURVE ( 'NONE', #7, #22, #213, .T. ) ;
#222 = CC_DESIGN_APPROVAL ( #206, ( #195 ) ) ;
#223 = CLOSED_SHELL ( 'NONE', ( #116, #98, #1, #43, #186, #151 ) ) ;
#224 = PERSON_AND_ORGANIZATION ( #225, #202 ) ;
#225 = PERSON ( 'UNSPECIFIED', 'UNSPECIFIED', 'UNSPECIFIED', ('UNSPECIFIED'), ('UNSPECIFIED'), ('UNSPECIFIED') ) ;
#226 = VECTOR ( 'NONE', #28, 1000.000000000000000 ) ;
#227 = CARTESIAN_POINT ( 'NONE',  ( 37.50000000000000000, -37.49999999999999300, 0.0000000000000000000 ) ) ;
#228 = PLANE ( 'NONE',  #160 ) ;
#229 = ORIENTED_EDGE ( 'NONE', *, *, #44, .F. ) ;
#230 = VECTOR ( 'NONE', #231, 1000.000000000000000 ) ;
#231 = DIRECTION ( 'NONE',  ( -1.000000000000000000, 0.0000000000000000000, 0.0000000000000000000 ) ) ;
#232 = CARTESIAN_POINT ( 'NONE',  ( -37.50000000000000700, 37.49999999999999300, 3.000000000000000000 ) ) ;
#233 = EDGE_CURVE ( 'NONE', #143, #207, #237, .T. ) ;
#234 = CC_DESIGN_PERSON_AND_ORGANIZATION_ASSIGNMENT ( #161, #193, ( #195 ) ) ;
#235 = DATE_AND_TIME ( #50, #183 ) ;
#236 = ORIENTED_EDGE ( 'NONE', *, *, #20, .F. ) ;
#237 = LINE ( 'NONE', #86, #208 ) ;
ENDSEC;
END-ISO-10303-21;
