ISO-10303-21;
HEADER;
FILE_DESCRIPTION (( 'STEP AP203' ),
    '1' );
FILE_NAME ('Web Model 41021MX_41039.step',
    '2017-10-30T12:53:28',
    ( '' ),
    ( '' ),
    'SwSTEP 2.0',
    'SolidWorks 2016',
    '' );
FILE_SCHEMA (( 'CONFIG_CONTROL_DESIGN' ));
ENDSEC;

DATA;
#1 = APPROVAL_PERSON_ORGANIZATION ( #145, #107, #197 ) ;
#2 = ORIENTED_EDGE ( 'NONE', *, *, #108, .T. ) ;
#3 = EDGE_CURVE ( 'NONE', #230, #156, #206, .T. ) ;
#4 = APPROVAL ( #87, 'UNSPECIFIED' ) ;
#5 = ORIENTED_EDGE ( 'NONE', *, *, #108, .F. ) ;
#6 = ORIENTED_EDGE ( 'NONE', *, *, #135, .T. ) ;
#7 = DIRECTION ( 'NONE',  ( 1.000000000000000000, 0.0000000000000000000, -0.0000000000000000000 ) ) ;
#8 = CARTESIAN_POINT ( 'NONE',  ( 12.49999999999999600, -6.249999999999998200, -4.750000000000000000 ) ) ;
#9 = APPROVAL_PERSON_ORGANIZATION ( #98, #4, #199 ) ;
#10 = VECTOR ( 'NONE', #193, 1000.000000000000000 ) ;
#11 = ORIENTED_EDGE ( 'NONE', *, *, #135, .F. ) ;
#12 = ORIENTED_EDGE ( 'NONE', *, *, #171, .T. ) ;
#13 = CC_DESIGN_PERSON_AND_ORGANIZATION_ASSIGNMENT ( #71, #216, ( #153 ) ) ;
#14 = PERSON_AND_ORGANIZATION ( #148, #202 ) ;
#15 = VECTOR ( 'NONE', #19, 1000.000000000000000 ) ;
#16 = PERSON_AND_ORGANIZATION ( #148, #202 ) ;
#17 = VECTOR ( 'NONE', #97, 1000.000000000000000 ) ;
#18 = CARTESIAN_POINT ( 'NONE',  ( 12.49999999999999600, 6.250000000000000000, 4.750000000000000000 ) ) ;
#19 = DIRECTION ( 'NONE',  ( 0.0000000000000000000, 1.000000000000000000, 0.0000000000000000000 ) ) ;
#20 = CARTESIAN_POINT ( 'NONE',  ( -12.50000000000000400, -6.250000000000001800, 4.750000000000000000 ) ) ;
#21 = CARTESIAN_POINT ( 'NONE',  ( 12.49999999999999600, -6.249999999999998200, 4.750000000000000000 ) ) ;
#22 =( GEOMETRIC_REPRESENTATION_CONTEXT ( 3 ) GLOBAL_UNCERTAINTY_ASSIGNED_CONTEXT ( ( #56 ) ) GLOBAL_UNIT_ASSIGNED_CONTEXT ( ( #181, #44, #63 ) ) REPRESENTATION_CONTEXT ( 'NONE', 'WORKASPACE' ) );
#23 = CARTESIAN_POINT ( 'NONE',  ( -12.50000000000000400, 6.249999999999998200, 4.750000000000000000 ) ) ;
#24 = APPROVAL_PERSON_ORGANIZATION ( #177, #105, #59 ) ;
#25 = FACE_OUTER_BOUND ( 'NONE', #213, .T. ) ;
#26 = VERTEX_POINT ( 'NONE', #134 ) ;
#27 = DIRECTION ( 'NONE',  ( 1.000000000000000000, 6.938893903907228400E-017, 0.0000000000000000000 ) ) ;
#28 = CARTESIAN_POINT ( 'NONE',  ( 12.49999999999999600, 6.250000000000000000, -4.750000000000000000 ) ) ;
#29 = DIRECTION ( 'NONE',  ( 0.0000000000000000000, -0.0000000000000000000, 1.000000000000000000 ) ) ;
#30 = COORDINATED_UNIVERSAL_TIME_OFFSET ( 5, 0, .BEHIND. ) ;
#31 = ORIENTED_EDGE ( 'NONE', *, *, #54, .F. ) ;
#32 = EDGE_CURVE ( 'NONE', #156, #220, #82, .T. ) ;
#33 = LINE ( 'NONE', #21, #106 ) ;
#34 = CC_DESIGN_DATE_AND_TIME_ASSIGNMENT ( #234, #102, ( #236 ) ) ;
#35 = APPROVAL_DATE_TIME ( #126, #105 ) ;
#36 = VERTEX_POINT ( 'NONE', #39 ) ;
#37 = CC_DESIGN_PERSON_AND_ORGANIZATION_ASSIGNMENT ( #14, #117, ( #131 ) ) ;
#38 = PRODUCT_DEFINITION_SHAPE ( 'NONE', 'NONE',  #236 ) ;
#39 = CARTESIAN_POINT ( 'NONE',  ( -12.50000000000000400, 6.249999999999998200, -4.750000000000000000 ) ) ;
#40 = CARTESIAN_POINT ( 'NONE',  ( 12.49999999999999600, -6.249999999999998200, 4.750000000000000000 ) ) ;
#41 = CARTESIAN_POINT ( 'NONE',  ( 12.49999999999999600, -6.249999999999998200, 4.750000000000000000 ) ) ;
#42 = APPROVAL_STATUS ( 'not_yet_approved' ) ;
#43 = SHAPE_DEFINITION_REPRESENTATION ( #38, #89 ) ;
#44 =( NAMED_UNIT ( * ) PLANE_ANGLE_UNIT ( ) SI_UNIT ( $, .RADIAN. ) );
#45 = AXIS2_PLACEMENT_3D ( 'NONE', #159, #29, #124 ) ;
#46 = CARTESIAN_POINT ( 'NONE',  ( 12.49999999999999600, -6.249999999999998200, 4.750000000000000000 ) ) ;
#47 = PLANE ( 'NONE',  #90 ) ;
#48 = EDGE_CURVE ( 'NONE', #237, #36, #50, .T. ) ;
#49 = CALENDAR_DATE ( 2017, 30, 10 ) ;
#50 = LINE ( 'NONE', #96, #179 ) ;
#51 = ORIENTED_EDGE ( 'NONE', *, *, #54, .T. ) ;
#52 = ORIENTED_EDGE ( 'NONE', *, *, #219, .T. ) ;
#53 = ORIENTED_EDGE ( 'NONE', *, *, #167, .F. ) ;
#54 = EDGE_CURVE ( 'NONE', #62, #230, #33, .T. ) ;
#55 = PLANE ( 'NONE',  #188 ) ;
#56 = UNCERTAINTY_MEASURE_WITH_UNIT (LENGTH_MEASURE( 1.000000000000000100E-005 ), #181, 'distance_accuracy_value', 'NONE');
#57 = DIRECTION ( 'NONE',  ( 0.0000000000000000000, -0.0000000000000000000, 1.000000000000000000 ) ) ;
#58 = PLANE ( 'NONE',  #210 ) ;
#59 = APPROVAL_ROLE ( '' ) ;
#60 = DIRECTION ( 'NONE',  ( 0.0000000000000000000, 0.0000000000000000000, 1.000000000000000000 ) ) ;
#61 = APPLICATION_PROTOCOL_DEFINITION ( 'international standard', 'config_control_design', 1994, #162 ) ;
#62 = VERTEX_POINT ( 'NONE', #20 ) ;
#63 =( NAMED_UNIT ( * ) SI_UNIT ( $, .STERADIAN. ) SOLID_ANGLE_UNIT ( ) );
#64 = ADVANCED_FACE ( 'NONE', ( #25 ), #228, .T. ) ;
#65 = APPROVAL_DATE_TIME ( #175, #4 ) ;
#66 = FACE_OUTER_BOUND ( 'NONE', #190, .T. ) ;
#67 = SECURITY_CLASSIFICATION ( '', '', #232 ) ;
#68 = CALENDAR_DATE ( 2017, 30, 10 ) ;
#69 = ORIENTED_EDGE ( 'NONE', *, *, #167, .T. ) ;
#70 = ORIENTED_EDGE ( 'NONE', *, *, #32, .T. ) ;
#71 = PERSON_AND_ORGANIZATION ( #148, #202 ) ;
#72 = ORIENTED_EDGE ( 'NONE', *, *, #48, .F. ) ;
#73 = COORDINATED_UNIVERSAL_TIME_OFFSET ( 5, 0, .BEHIND. ) ;
#74 = EDGE_CURVE ( 'NONE', #230, #227, #120, .T. ) ;
#75 = ORIENTED_EDGE ( 'NONE', *, *, #3, .T. ) ;
#76 = EDGE_LOOP ( 'NONE', ( #186, #132, #123, #224 ) ) ;
#77 = DIRECTION ( 'NONE',  ( 0.0000000000000000000, 1.000000000000000000, 0.0000000000000000000 ) ) ;
#78 = CC_DESIGN_PERSON_AND_ORGANIZATION_ASSIGNMENT ( #209, #214, ( #236 ) ) ;
#79 = DIRECTION ( 'NONE',  ( -1.000000000000000000, -6.938893903907228400E-017, 0.0000000000000000000 ) ) ;
#80 = DIRECTION ( 'NONE',  ( -0.0000000000000000000, -0.0000000000000000000, -1.000000000000000000 ) ) ;
#81 = CARTESIAN_POINT ( 'NONE',  ( -12.50000000000000400, -6.250000000000001800, 4.750000000000000000 ) ) ;
#82 = LINE ( 'NONE', #192, #115 ) ;
#83 = DIRECTION ( 'NONE',  ( 1.000000000000000000, 0.0000000000000000000, 0.0000000000000000000 ) ) ;
#84 = CC_DESIGN_PERSON_AND_ORGANIZATION_ASSIGNMENT ( #16, #101, ( #67 ) ) ;
#85 = DIRECTION ( 'NONE',  ( 6.938893903907228400E-017, -1.000000000000000000, 0.0000000000000000000 ) ) ;
#86 = DIRECTION ( 'NONE',  ( -0.0000000000000000000, -0.0000000000000000000, -1.000000000000000000 ) ) ;
#87 = APPROVAL_STATUS ( 'not_yet_approved' ) ;
#88 = ORIENTED_EDGE ( 'NONE', *, *, #171, .F. ) ;
#89 = ADVANCED_BREP_SHAPE_REPRESENTATION ( 'Web Model 41021MX_41039', ( #119, #223 ), #22 ) ;
#90 = AXIS2_PLACEMENT_3D ( 'NONE', #81, #138, #229 ) ;
#91 = DATE_AND_TIME ( #139, #165 ) ;
#92 = VECTOR ( 'NONE', #86, 1000.000000000000000 ) ;
#93 = CC_DESIGN_DATE_AND_TIME_ASSIGNMENT ( #195, #178, ( #67 ) ) ;
#94 = FACE_OUTER_BOUND ( 'NONE', #128, .T. ) ;
#95 = DIRECTION ( 'NONE',  ( -0.0000000000000000000, -0.0000000000000000000, -1.000000000000000000 ) ) ;
#96 = CARTESIAN_POINT ( 'NONE',  ( -12.50000000000000400, 6.249999999999998200, 4.750000000000000000 ) ) ;
#97 = DIRECTION ( 'NONE',  ( -0.0000000000000000000, -1.000000000000000000, -0.0000000000000000000 ) ) ;
#98 = PERSON_AND_ORGANIZATION ( #148, #202 ) ;
#99 = CARTESIAN_POINT ( 'NONE',  ( -12.50000000000000400, -6.250000000000001800, -4.750000000000000000 ) ) ;
#100 = VECTOR ( 'NONE', #116, 1000.000000000000000 ) ;
#101 = PERSON_AND_ORGANIZATION_ROLE ( 'classification_officer' ) ;
#102 = DATE_TIME_ROLE ( 'creation_date' ) ;
#103 = ORIENTED_EDGE ( 'NONE', *, *, #180, .T. ) ;
#104 = ORIENTED_EDGE ( 'NONE', *, *, #219, .F. ) ;
#105 = APPROVAL ( #118, 'UNSPECIFIED' ) ;
#106 = VECTOR ( 'NONE', #155, 1000.000000000000000 ) ;
#107 = APPROVAL ( #42, 'UNSPECIFIED' ) ;
#108 = EDGE_CURVE ( 'NONE', #36, #26, #218, .T. ) ;
#109 = LINE ( 'NONE', #18, #170 ) ;
#110 = CARTESIAN_POINT ( 'NONE',  ( -12.50000000000000400, -6.250000000000001800, 4.750000000000000000 ) ) ;
#111 = ORIENTED_EDGE ( 'NONE', *, *, #180, .F. ) ;
#112 = CARTESIAN_POINT ( 'NONE',  ( 12.49999999999999600, 6.250000000000000000, -4.750000000000000000 ) ) ;
#113 = CARTESIAN_POINT ( 'NONE',  ( 0.0000000000000000000, 0.0000000000000000000, 4.750000000000000000 ) ) ;
#114 = DIRECTION ( 'NONE',  ( -1.000000000000000000, 0.0000000000000000000, 0.0000000000000000000 ) ) ;
#115 = VECTOR ( 'NONE', #80, 1000.000000000000000 ) ;
#116 = DIRECTION ( 'NONE',  ( -1.000000000000000000, -6.938893903907228400E-017, 0.0000000000000000000 ) ) ;
#117 = PERSON_AND_ORGANIZATION_ROLE ( 'design_owner' ) ;
#118 = APPROVAL_STATUS ( 'not_yet_approved' ) ;
#119 = MANIFOLD_SOLID_BREP ( 'Boss-Extrude1', #147 ) ;
#120 = LINE ( 'NONE', #41, #10 ) ;
#121 = ADVANCED_FACE ( 'NONE', ( #66 ), #55, .F. ) ;
#122 = CC_DESIGN_APPROVAL ( #107, ( #67 ) ) ;
#123 = ORIENTED_EDGE ( 'NONE', *, *, #3, .F. ) ;
#124 = DIRECTION ( 'NONE',  ( 1.000000000000000000, 0.0000000000000000000, -0.0000000000000000000 ) ) ;
#125 = EDGE_CURVE ( 'NONE', #227, #220, #146, .T. ) ;
#126 = DATE_AND_TIME ( #233, #226 ) ;
#127 = APPROVAL_DATE_TIME ( #91, #107 ) ;
#128 = EDGE_LOOP ( 'NONE', ( #5, #111, #129, #11 ) ) ;
#129 = ORIENTED_EDGE ( 'NONE', *, *, #125, .F. ) ;
#130 = CC_DESIGN_APPROVAL ( #105, ( #153 ) ) ;
#131 = PRODUCT ( 'Web Model 41021MX_41039', 'Web Model 41021MX_41039', '', ( #182 ) ) ;
#132 = ORIENTED_EDGE ( 'NONE', *, *, #32, .F. ) ;
#133 = PRODUCT_RELATED_PRODUCT_CATEGORY ( 'detail', '', ( #131 ) ) ;
#134 = CARTESIAN_POINT ( 'NONE',  ( -12.50000000000000400, -6.250000000000001800, -4.750000000000000000 ) ) ;
#135 = EDGE_CURVE ( 'NONE', #26, #227, #205, .T. ) ;
#136 = DIRECTION ( 'NONE',  ( -1.000000000000000000, -1.387778780781445700E-016, 0.0000000000000000000 ) ) ;
#137 = CARTESIAN_POINT ( 'NONE',  ( 12.49999999999999600, 6.250000000000000000, 4.750000000000000000 ) ) ;
#138 = DIRECTION ( 'NONE',  ( 1.000000000000000000, 0.0000000000000000000, 0.0000000000000000000 ) ) ;
#139 = CALENDAR_DATE ( 2017, 30, 10 ) ;
#140 = FACE_OUTER_BOUND ( 'NONE', #173, .T. ) ;
#141 = APPLICATION_CONTEXT ( 'configuration controlled 3d designs of mechanical parts and assemblies' ) ;
#142 = CARTESIAN_POINT ( 'NONE',  ( 12.49999999999999600, 6.250000000000000000, 4.750000000000000000 ) ) ;
#143 = ADVANCED_FACE ( 'NONE', ( #149 ), #58, .F. ) ;
#144 = CC_DESIGN_SECURITY_CLASSIFICATION ( #67, ( #153 ) ) ;
#145 = PERSON_AND_ORGANIZATION ( #148, #202 ) ;
#146 = LINE ( 'NONE', #194, #211 ) ;
#147 = CLOSED_SHELL ( 'NONE', ( #231, #121, #143, #198, #64, #215 ) ) ;
#148 = PERSON ( 'UNSPECIFIED', 'UNSPECIFIED', 'UNSPECIFIED', ('UNSPECIFIED'), ('UNSPECIFIED'), ('UNSPECIFIED') ) ;
#149 = FACE_OUTER_BOUND ( 'NONE', #76, .T. ) ;
#150 = EDGE_LOOP ( 'NONE', ( #103, #72, #53, #70 ) ) ;
#151 = CARTESIAN_POINT ( 'NONE',  ( 12.49999999999999600, -6.249999999999998200, -4.750000000000000000 ) ) ;
#152 = CARTESIAN_POINT ( 'NONE',  ( 12.49999999999999600, -6.249999999999998200, 4.750000000000000000 ) ) ;
#153 = PRODUCT_DEFINITION_FORMATION_WITH_SPECIFIED_SOURCE ( 'ANY', '', #131, .NOT_KNOWN. ) ;
#154 = PERSON_AND_ORGANIZATION ( #148, #202 ) ;
#155 = DIRECTION ( 'NONE',  ( 1.000000000000000000, 1.387778780781445700E-016, -0.0000000000000000000 ) ) ;
#156 = VERTEX_POINT ( 'NONE', #137 ) ;
#157 = APPLICATION_PROTOCOL_DEFINITION ( 'international standard', 'config_control_design', 1994, #141 ) ;
#158 = PLANE ( 'NONE',  #184 ) ;
#159 = CARTESIAN_POINT ( 'NONE',  ( 0.0000000000000000000, 0.0000000000000000000, -4.750000000000000000 ) ) ;
#160 = CC_DESIGN_PERSON_AND_ORGANIZATION_ASSIGNMENT ( #154, #201, ( #153 ) ) ;
#161 = LINE ( 'NONE', #203, #92 ) ;
#162 = APPLICATION_CONTEXT ( 'configuration controlled 3d designs of mechanical parts and assemblies' ) ;
#163 = CARTESIAN_POINT ( 'NONE',  ( 0.0000000000000000000, 0.0000000000000000000, 0.0000000000000000000 ) ) ;
#164 = AXIS2_PLACEMENT_3D ( 'NONE', #113, #57, #7 ) ;
#165 = LOCAL_TIME ( 8, 53, 28.00000000000000000, #185 ) ;
#166 = VECTOR ( 'NONE', #176, 1000.000000000000000 ) ;
#167 = EDGE_CURVE ( 'NONE', #156, #237, #109, .T. ) ;
#168 = VECTOR ( 'NONE', #174, 1000.000000000000000 ) ;
#169 = LOCAL_TIME ( 8, 53, 28.00000000000000000, #30 ) ;
#170 = VECTOR ( 'NONE', #79, 1000.000000000000000 ) ;
#171 = EDGE_CURVE ( 'NONE', #237, #62, #235, .T. ) ;
#172 = COORDINATED_UNIVERSAL_TIME_OFFSET ( 5, 0, .BEHIND. ) ;
#173 = EDGE_LOOP ( 'NONE', ( #2, #104, #88, #207 ) ) ;
#174 = DIRECTION ( 'NONE',  ( -0.0000000000000000000, -1.000000000000000000, -0.0000000000000000000 ) ) ;
#175 = DATE_AND_TIME ( #217, #183 ) ;
#176 = DIRECTION ( 'NONE',  ( 1.000000000000000000, 1.387778780781445700E-016, -0.0000000000000000000 ) ) ;
#177 = PERSON_AND_ORGANIZATION ( #148, #202 ) ;
#178 = DATE_TIME_ROLE ( 'classification_date' ) ;
#179 = VECTOR ( 'NONE', #95, 1000.000000000000000 ) ;
#180 = EDGE_CURVE ( 'NONE', #220, #36, #204, .T. ) ;
#181 =( LENGTH_UNIT ( ) NAMED_UNIT ( * ) SI_UNIT ( .MILLI., .METRE. ) );
#182 = MECHANICAL_CONTEXT ( 'NONE', #162, 'mechanical' ) ;
#183 = LOCAL_TIME ( 8, 53, 28.00000000000000000, #73 ) ;
#184 = AXIS2_PLACEMENT_3D ( 'NONE', #142, #85, #27 ) ;
#185 = COORDINATED_UNIVERSAL_TIME_OFFSET ( 5, 0, .BEHIND. ) ;
#186 = ORIENTED_EDGE ( 'NONE', *, *, #125, .T. ) ;
#187 = LOCAL_TIME ( 8, 53, 28.00000000000000000, #172 ) ;
#188 = AXIS2_PLACEMENT_3D ( 'NONE', #191, #225, #136 ) ;
#189 = COORDINATED_UNIVERSAL_TIME_OFFSET ( 5, 0, .BEHIND. ) ;
#190 = EDGE_LOOP ( 'NONE', ( #6, #221, #31, #52 ) ) ;
#191 = CARTESIAN_POINT ( 'NONE',  ( 12.49999999999999600, -6.249999999999998200, 4.750000000000000000 ) ) ;
#192 = CARTESIAN_POINT ( 'NONE',  ( 12.49999999999999600, 6.250000000000000000, 4.750000000000000000 ) ) ;
#193 = DIRECTION ( 'NONE',  ( -0.0000000000000000000, -0.0000000000000000000, -1.000000000000000000 ) ) ;
#194 = CARTESIAN_POINT ( 'NONE',  ( 12.49999999999999600, -6.249999999999998200, -4.750000000000000000 ) ) ;
#195 = DATE_AND_TIME ( #49, #187 ) ;
#196 = FACE_OUTER_BOUND ( 'NONE', #150, .T. ) ;
#197 = APPROVAL_ROLE ( '' ) ;
#198 = ADVANCED_FACE ( 'NONE', ( #196 ), #158, .F. ) ;
#199 = APPROVAL_ROLE ( '' ) ;
#200 = CC_DESIGN_APPROVAL ( #4, ( #236 ) ) ;
#201 = PERSON_AND_ORGANIZATION_ROLE ( 'creator' ) ;
#202 = ORGANIZATION ( 'UNSPECIFIED', 'UNSPECIFIED', '' ) ;
#203 = CARTESIAN_POINT ( 'NONE',  ( -12.50000000000000400, -6.250000000000001800, 4.750000000000000000 ) ) ;
#204 = LINE ( 'NONE', #112, #100 ) ;
#205 = LINE ( 'NONE', #151, #166 ) ;
#206 = LINE ( 'NONE', #40, #15 ) ;
#207 = ORIENTED_EDGE ( 'NONE', *, *, #48, .T. ) ;
#208 = DIRECTION ( 'NONE',  ( 0.0000000000000000000, 0.0000000000000000000, 1.000000000000000000 ) ) ;
#209 = PERSON_AND_ORGANIZATION ( #148, #202 ) ;
#210 = AXIS2_PLACEMENT_3D ( 'NONE', #152, #114, #208 ) ;
#211 = VECTOR ( 'NONE', #77, 1000.000000000000000 ) ;
#212 = PLANE ( 'NONE',  #45 ) ;
#213 = EDGE_LOOP ( 'NONE', ( #12, #51, #75, #69 ) ) ;
#214 = PERSON_AND_ORGANIZATION_ROLE ( 'creator' ) ;
#215 = ADVANCED_FACE ( 'NONE', ( #94 ), #212, .F. ) ;
#216 = PERSON_AND_ORGANIZATION_ROLE ( 'design_supplier' ) ;
#217 = CALENDAR_DATE ( 2017, 30, 10 ) ;
#218 = LINE ( 'NONE', #99, #168 ) ;
#219 = EDGE_CURVE ( 'NONE', #62, #26, #161, .T. ) ;
#220 = VERTEX_POINT ( 'NONE', #28 ) ;
#221 = ORIENTED_EDGE ( 'NONE', *, *, #74, .F. ) ;
#222 = DESIGN_CONTEXT ( 'detailed design', #141, 'design' ) ;
#223 = AXIS2_PLACEMENT_3D ( 'NONE', #163, #60, #83 ) ;
#224 = ORIENTED_EDGE ( 'NONE', *, *, #74, .T. ) ;
#225 = DIRECTION ( 'NONE',  ( -1.387778780781445700E-016, 1.000000000000000000, 0.0000000000000000000 ) ) ;
#226 = LOCAL_TIME ( 8, 53, 28.00000000000000000, #189 ) ;
#227 = VERTEX_POINT ( 'NONE', #8 ) ;
#228 = PLANE ( 'NONE',  #164 ) ;
#229 = DIRECTION ( 'NONE',  ( 0.0000000000000000000, 0.0000000000000000000, -1.000000000000000000 ) ) ;
#230 = VERTEX_POINT ( 'NONE', #46 ) ;
#231 = ADVANCED_FACE ( 'NONE', ( #140 ), #47, .F. ) ;
#232 = SECURITY_CLASSIFICATION_LEVEL ( 'unclassified' ) ;
#233 = CALENDAR_DATE ( 2017, 30, 10 ) ;
#234 = DATE_AND_TIME ( #68, #169 ) ;
#235 = LINE ( 'NONE', #110, #17 ) ;
#236 = PRODUCT_DEFINITION ( 'UNKNOWN', '', #153, #222 ) ;
#237 = VERTEX_POINT ( 'NONE', #23 ) ;
ENDSEC;
END-ISO-10303-21;
