ISO-10303-21;
HEADER;
FILE_DESCRIPTION (( 'STEP AP203' ),
    '1' );
FILE_NAME ('Web Model 37128MX_37136.step',
    '2018-05-08T16:12:49',
    ( '' ),
    ( '' ),
    'SwSTEP 2.0',
    'SolidWorks 2016',
    '' );
FILE_SCHEMA (( 'CONFIG_CONTROL_DESIGN' ));
ENDSEC;

DATA;
#1 = APPROVAL_STATUS ( 'not_yet_approved' ) ;
#2 = ORIENTED_EDGE ( 'NONE', *, *, #129, .T. ) ;
#3 = LOCAL_TIME ( 12, 12, 49.00000000000000000, #96 ) ;
#4 = ORIENTED_EDGE ( 'NONE', *, *, #65, .T. ) ;
#5 = AXIS2_PLACEMENT_3D ( 'NONE', #12, #212, #33 ) ;
#6 = DATE_AND_TIME ( #217, #16 ) ;
#7 = VERTEX_POINT ( 'NONE', #48 ) ;
#8 = APPROVAL_PERSON_ORGANIZATION ( #106, #113, #99 ) ;
#9 = ORIENTED_EDGE ( 'NONE', *, *, #65, .F. ) ;
#10 = CALENDAR_DATE ( 2018, 8, 5 ) ;
#11 = PERSON_AND_ORGANIZATION_ROLE ( 'design_supplier' ) ;
#12 = CARTESIAN_POINT ( 'NONE',  ( 12.50000000000000500, -12.50000000000000200, 3.000000000000000000 ) ) ;
#13 = ORIENTED_EDGE ( 'NONE', *, *, #42, .T. ) ;
#14 = DIRECTION ( 'NONE',  ( -0.0000000000000000000, -1.000000000000000000, -0.0000000000000000000 ) ) ;
#15 = CARTESIAN_POINT ( 'NONE',  ( 12.50000000000000500, 12.49999999999999800, 3.000000000000000000 ) ) ;
#16 = LOCAL_TIME ( 12, 12, 49.00000000000000000, #67 ) ;
#17 = CARTESIAN_POINT ( 'NONE',  ( -12.49999999999999500, -12.50000000000000500, -3.000000000000000000 ) ) ;
#18 = CC_DESIGN_PERSON_AND_ORGANIZATION_ASSIGNMENT ( #86, #218, ( #55 ) ) ;
#19 = CARTESIAN_POINT ( 'NONE',  ( 12.50000000000000500, 12.49999999999999800, 3.000000000000000000 ) ) ;
#20 = VERTEX_POINT ( 'NONE', #176 ) ;
#21 = DIRECTION ( 'NONE',  ( 1.000000000000000000, 0.0000000000000000000, 0.0000000000000000000 ) ) ;
#22 = LINE ( 'NONE', #178, #108 ) ;
#23 = PERSON_AND_ORGANIZATION ( #90, #139 ) ;
#24 = ADVANCED_FACE ( 'NONE', ( #148 ), #88, .F. ) ;
#25 = DATE_AND_TIME ( #80, #52 ) ;
#26 = APPROVAL_ROLE ( '' ) ;
#27 = EDGE_LOOP ( 'NONE', ( #41, #2, #222, #125 ) ) ;
#28 = DATE_TIME_ROLE ( 'classification_date' ) ;
#29 = AXIS2_PLACEMENT_3D ( 'NONE', #159, #73, #203 ) ;
#30 = SECURITY_CLASSIFICATION_LEVEL ( 'unclassified' ) ;
#31 = DIRECTION ( 'NONE',  ( 1.000000000000000000, 1.387778780781445700E-016, -0.0000000000000000000 ) ) ;
#32 = LINE ( 'NONE', #91, #173 ) ;
#33 = DIRECTION ( 'NONE',  ( 0.0000000000000000000, 0.0000000000000000000, 1.000000000000000000 ) ) ;
#34 = DIRECTION ( 'NONE',  ( 0.0000000000000000000, 1.000000000000000000, 0.0000000000000000000 ) ) ;
#35 = EDGE_LOOP ( 'NONE', ( #111, #9, #201, #163 ) ) ;
#36 = DIRECTION ( 'NONE',  ( 1.000000000000000000, 0.0000000000000000000, -0.0000000000000000000 ) ) ;
#37 = CARTESIAN_POINT ( 'NONE',  ( 12.50000000000000500, -12.50000000000000200, 3.000000000000000000 ) ) ;
#38 = CARTESIAN_POINT ( 'NONE',  ( -12.49999999999999500, 12.49999999999999500, 3.000000000000000000 ) ) ;
#39 = COORDINATED_UNIVERSAL_TIME_OFFSET ( 5, 0, .BEHIND. ) ;
#40 = APPROVAL_ROLE ( '' ) ;
#41 = ORIENTED_EDGE ( 'NONE', *, *, #174, .T. ) ;
#42 = EDGE_CURVE ( 'NONE', #134, #83, #199, .T. ) ;
#43 = CC_DESIGN_DATE_AND_TIME_ASSIGNMENT ( #104, #164, ( #207 ) ) ;
#44 = VECTOR ( 'NONE', #146, 1000.000000000000000 ) ;
#45 = ADVANCED_FACE ( 'NONE', ( #233 ), #209, .F. ) ;
#46 = APPROVAL ( #1, 'UNSPECIFIED' ) ;
#47 = CARTESIAN_POINT ( 'NONE',  ( 12.50000000000000500, 12.49999999999999800, -3.000000000000000000 ) ) ;
#48 = CARTESIAN_POINT ( 'NONE',  ( 12.50000000000000500, -12.50000000000000200, 3.000000000000000000 ) ) ;
#49 = CC_DESIGN_PERSON_AND_ORGANIZATION_ASSIGNMENT ( #116, #84, ( #228 ) ) ;
#50 = EDGE_LOOP ( 'NONE', ( #187, #151, #208, #76 ) ) ;
#51 = EDGE_CURVE ( 'NONE', #20, #149, #206, .T. ) ;
#52 = LOCAL_TIME ( 12, 12, 49.00000000000000000, #150 ) ;
#53 = VECTOR ( 'NONE', #57, 1000.000000000000000 ) ;
#54 = CARTESIAN_POINT ( 'NONE',  ( -12.49999999999999500, -12.50000000000000500, 3.000000000000000000 ) ) ;
#55 = PRODUCT ( 'Web Model 37128MX_37136', 'Web Model 37128MX_37136', '', ( #216 ) ) ;
#56 = DIRECTION ( 'NONE',  ( 1.000000000000000000, 0.0000000000000000000, -0.0000000000000000000 ) ) ;
#57 = DIRECTION ( 'NONE',  ( 0.0000000000000000000, 1.000000000000000000, 0.0000000000000000000 ) ) ;
#58 = APPROVAL_STATUS ( 'not_yet_approved' ) ;
#59 = ORIENTED_EDGE ( 'NONE', *, *, #160, .T. ) ;
#60 = LOCAL_TIME ( 12, 12, 49.00000000000000000, #39 ) ;
#61 = APPROVAL ( #118, 'UNSPECIFIED' ) ;
#62 = PRODUCT_DEFINITION_FORMATION_WITH_SPECIFIED_SOURCE ( 'ANY', '', #55, .NOT_KNOWN. ) ;
#63 = ORIENTED_EDGE ( 'NONE', *, *, #174, .F. ) ;
#64 = CC_DESIGN_DATE_AND_TIME_ASSIGNMENT ( #6, #28, ( #228 ) ) ;
#65 = EDGE_CURVE ( 'NONE', #128, #20, #133, .T. ) ;
#66 = DATE_AND_TIME ( #210, #144 ) ;
#67 = COORDINATED_UNIVERSAL_TIME_OFFSET ( 5, 0, .BEHIND. ) ;
#68 = CARTESIAN_POINT ( 'NONE',  ( -12.49999999999999500, -12.50000000000000500, 3.000000000000000000 ) ) ;
#69 = DIRECTION ( 'NONE',  ( -1.000000000000000000, -1.387778780781445400E-016, 0.0000000000000000000 ) ) ;
#70 = DIRECTION ( 'NONE',  ( -0.0000000000000000000, -0.0000000000000000000, -1.000000000000000000 ) ) ;
#71 = DIRECTION ( 'NONE',  ( -0.0000000000000000000, -1.000000000000000000, -0.0000000000000000000 ) ) ;
#72 = CC_DESIGN_APPROVAL ( #113, ( #62 ) ) ;
#73 = DIRECTION ( 'NONE',  ( 1.387778780781445400E-016, -1.000000000000000000, 0.0000000000000000000 ) ) ;
#74 =( NAMED_UNIT ( * ) PLANE_ANGLE_UNIT ( ) SI_UNIT ( $, .RADIAN. ) );
#75 = COORDINATED_UNIVERSAL_TIME_OFFSET ( 5, 0, .BEHIND. ) ;
#76 = ORIENTED_EDGE ( 'NONE', *, *, #42, .F. ) ;
#77 = EDGE_CURVE ( 'NONE', #83, #20, #98, .T. ) ;
#78 = DESIGN_CONTEXT ( 'detailed design', #204, 'design' ) ;
#79 = VERTEX_POINT ( 'NONE', #68 ) ;
#80 = CALENDAR_DATE ( 2018, 8, 5 ) ;
#81 = LINE ( 'NONE', #202, #154 ) ;
#82 = EDGE_CURVE ( 'NONE', #192, #149, #22, .T. ) ;
#83 = VERTEX_POINT ( 'NONE', #87 ) ;
#84 = PERSON_AND_ORGANIZATION_ROLE ( 'classification_officer' ) ;
#85 = CARTESIAN_POINT ( 'NONE',  ( 12.50000000000000500, -12.50000000000000200, -3.000000000000000000 ) ) ;
#86 = PERSON_AND_ORGANIZATION ( #90, #139 ) ;
#87 = CARTESIAN_POINT ( 'NONE',  ( 12.50000000000000500, -12.50000000000000200, -3.000000000000000000 ) ) ;
#88 = PLANE ( 'NONE',  #5 ) ;
#89 = AXIS2_PLACEMENT_3D ( 'NONE', #230, #142, #69 ) ;
#90 = PERSON ( 'UNSPECIFIED', 'UNSPECIFIED', 'UNSPECIFIED', ('UNSPECIFIED'), ('UNSPECIFIED'), ('UNSPECIFIED') ) ;
#91 = CARTESIAN_POINT ( 'NONE',  ( -12.49999999999999500, -12.50000000000000500, -3.000000000000000000 ) ) ;
#92 = CC_DESIGN_SECURITY_CLASSIFICATION ( #228, ( #62 ) ) ;
#93 = DIRECTION ( 'NONE',  ( 0.0000000000000000000, -0.0000000000000000000, 1.000000000000000000 ) ) ;
#94 = DIRECTION ( 'NONE',  ( -0.0000000000000000000, -0.0000000000000000000, -1.000000000000000000 ) ) ;
#95 = EDGE_CURVE ( 'NONE', #7, #128, #105, .T. ) ;
#96 = COORDINATED_UNIVERSAL_TIME_OFFSET ( 5, 0, .BEHIND. ) ;
#97 = APPLICATION_PROTOCOL_DEFINITION ( 'international standard', 'config_control_design', 1994, #204 ) ;
#98 = LINE ( 'NONE', #85, #158 ) ;
#99 = APPROVAL_ROLE ( '' ) ;
#100 = AXIS2_PLACEMENT_3D ( 'NONE', #161, #93, #56 ) ;
#101 = CC_DESIGN_APPROVAL ( #61, ( #228 ) ) ;
#102 = LINE ( 'NONE', #37, #181 ) ;
#103 = CC_DESIGN_PERSON_AND_ORGANIZATION_ASSIGNMENT ( #165, #195, ( #62 ) ) ;
#104 = DATE_AND_TIME ( #223, #60 ) ;
#105 = LINE ( 'NONE', #120, #53 ) ;
#106 = PERSON_AND_ORGANIZATION ( #90, #139 ) ;
#107 = VECTOR ( 'NONE', #196, 1000.000000000000000 ) ;
#108 = VECTOR ( 'NONE', #193, 1000.000000000000000 ) ;
#109 = ORIENTED_EDGE ( 'NONE', *, *, #51, .T. ) ;
#110 = APPLICATION_PROTOCOL_DEFINITION ( 'international standard', 'config_control_design', 1994, #147 ) ;
#111 = ORIENTED_EDGE ( 'NONE', *, *, #77, .T. ) ;
#112 =( NAMED_UNIT ( * ) SI_UNIT ( $, .STERADIAN. ) SOLID_ANGLE_UNIT ( ) );
#113 = APPROVAL ( #58, 'UNSPECIFIED' ) ;
#114 = DATE_AND_TIME ( #10, #3 ) ;
#115 = EDGE_CURVE ( 'NONE', #79, #134, #81, .T. ) ;
#116 = PERSON_AND_ORGANIZATION ( #90, #139 ) ;
#117 = ADVANCED_FACE ( 'NONE', ( #145 ), #182, .T. ) ;
#118 = APPROVAL_STATUS ( 'not_yet_approved' ) ;
#119 = CC_DESIGN_PERSON_AND_ORGANIZATION_ASSIGNMENT ( #23, #11, ( #62 ) ) ;
#120 = CARTESIAN_POINT ( 'NONE',  ( 12.50000000000000500, -12.50000000000000200, 3.000000000000000000 ) ) ;
#121 = EDGE_LOOP ( 'NONE', ( #59, #220, #63, #226 ) ) ;
#122 = DIRECTION ( 'NONE',  ( -0.0000000000000000000, -0.0000000000000000000, -1.000000000000000000 ) ) ;
#123 = APPROVAL_PERSON_ORGANIZATION ( #172, #61, #26 ) ;
#124 = PRODUCT_RELATED_PRODUCT_CATEGORY ( 'detail', '', ( #55 ) ) ;
#125 = ORIENTED_EDGE ( 'NONE', *, *, #225, .T. ) ;
#126 = CARTESIAN_POINT ( 'NONE',  ( 0.0000000000000000000, 0.0000000000000000000, 0.0000000000000000000 ) ) ;
#127 = CARTESIAN_POINT ( 'NONE',  ( 0.0000000000000000000, 0.0000000000000000000, 3.000000000000000000 ) ) ;
#128 = VERTEX_POINT ( 'NONE', #15 ) ;
#129 = EDGE_CURVE ( 'NONE', #79, #7, #224, .T. ) ;
#130 = VECTOR ( 'NONE', #234, 1000.000000000000000 ) ;
#131 = AXIS2_PLACEMENT_3D ( 'NONE', #213, #184, #162 ) ;
#132 = APPROVAL_DATE_TIME ( #66, #61 ) ;
#133 = LINE ( 'NONE', #156, #166 ) ;
#134 = VERTEX_POINT ( 'NONE', #17 ) ;
#135 = EDGE_CURVE ( 'NONE', #7, #83, #102, .T. ) ;
#136 = LINE ( 'NONE', #19, #130 ) ;
#137 = PRODUCT_DEFINITION_SHAPE ( 'NONE', 'NONE',  #207 ) ;
#138 = MANIFOLD_SOLID_BREP ( 'Boss-Extrude1', #231 ) ;
#139 = ORGANIZATION ( 'UNSPECIFIED', 'UNSPECIFIED', '' ) ;
#140 = ORIENTED_EDGE ( 'NONE', *, *, #115, .T. ) ;
#141 = CARTESIAN_POINT ( 'NONE',  ( 12.50000000000000500, -12.50000000000000200, -3.000000000000000000 ) ) ;
#142 = DIRECTION ( 'NONE',  ( -1.387778780781445400E-016, 1.000000000000000000, 0.0000000000000000000 ) ) ;
#143 = PLANE ( 'NONE',  #29 ) ;
#144 = LOCAL_TIME ( 12, 12, 49.00000000000000000, #75 ) ;
#145 = FACE_OUTER_BOUND ( 'NONE', #27, .T. ) ;
#146 = DIRECTION ( 'NONE',  ( 1.000000000000000000, 1.387778780781445700E-016, -0.0000000000000000000 ) ) ;
#147 = APPLICATION_CONTEXT ( 'configuration controlled 3d designs of mechanical parts and assemblies' ) ;
#148 = FACE_OUTER_BOUND ( 'NONE', #35, .T. ) ;
#149 = VERTEX_POINT ( 'NONE', #236 ) ;
#150 = COORDINATED_UNIVERSAL_TIME_OFFSET ( 5, 0, .BEHIND. ) ;
#151 = ORIENTED_EDGE ( 'NONE', *, *, #51, .F. ) ;
#152 = CC_DESIGN_APPROVAL ( #46, ( #207 ) ) ;
#153 = PERSON_AND_ORGANIZATION ( #90, #139 ) ;
#154 = VECTOR ( 'NONE', #70, 1000.000000000000000 ) ;
#155 = EDGE_LOOP ( 'NONE', ( #13, #197, #157, #140 ) ) ;
#156 = CARTESIAN_POINT ( 'NONE',  ( 12.50000000000000500, 12.49999999999999800, 3.000000000000000000 ) ) ;
#157 = ORIENTED_EDGE ( 'NONE', *, *, #129, .F. ) ;
#158 = VECTOR ( 'NONE', #34, 1000.000000000000000 ) ;
#159 = CARTESIAN_POINT ( 'NONE',  ( 12.50000000000000500, 12.49999999999999800, 3.000000000000000000 ) ) ;
#160 = EDGE_CURVE ( 'NONE', #149, #134, #32, .T. ) ;
#161 = CARTESIAN_POINT ( 'NONE',  ( 0.0000000000000000000, 0.0000000000000000000, -3.000000000000000000 ) ) ;
#162 = DIRECTION ( 'NONE',  ( 0.0000000000000000000, 0.0000000000000000000, -1.000000000000000000 ) ) ;
#163 = ORIENTED_EDGE ( 'NONE', *, *, #135, .T. ) ;
#164 = DATE_TIME_ROLE ( 'creation_date' ) ;
#165 = PERSON_AND_ORGANIZATION ( #90, #139 ) ;
#166 = VECTOR ( 'NONE', #122, 1000.000000000000000 ) ;
#167 = CC_DESIGN_PERSON_AND_ORGANIZATION_ASSIGNMENT ( #153, #205, ( #207 ) ) ;
#168 = ADVANCED_BREP_SHAPE_REPRESENTATION ( 'Web Model 37128MX_37136', ( #138, #194 ), #183 ) ;
#169 = ADVANCED_FACE ( 'NONE', ( #190 ), #232, .F. ) ;
#170 = ADVANCED_FACE ( 'NONE', ( #214 ), #235, .F. ) ;
#171 = EDGE_LOOP ( 'NONE', ( #109, #219, #179, #4 ) ) ;
#172 = PERSON_AND_ORGANIZATION ( #90, #139 ) ;
#173 = VECTOR ( 'NONE', #71, 1000.000000000000000 ) ;
#174 = EDGE_CURVE ( 'NONE', #192, #79, #229, .T. ) ;
#175 = VECTOR ( 'NONE', #31, 1000.000000000000000 ) ;
#176 = CARTESIAN_POINT ( 'NONE',  ( 12.50000000000000500, 12.49999999999999800, -3.000000000000000000 ) ) ;
#177 = APPROVAL_DATE_TIME ( #25, #113 ) ;
#178 = CARTESIAN_POINT ( 'NONE',  ( -12.49999999999999500, 12.49999999999999500, 3.000000000000000000 ) ) ;
#179 = ORIENTED_EDGE ( 'NONE', *, *, #225, .F. ) ;
#180 = DIRECTION ( 'NONE',  ( 0.0000000000000000000, 0.0000000000000000000, 1.000000000000000000 ) ) ;
#181 = VECTOR ( 'NONE', #94, 1000.000000000000000 ) ;
#182 = PLANE ( 'NONE',  #188 ) ;
#183 =( GEOMETRIC_REPRESENTATION_CONTEXT ( 3 ) GLOBAL_UNCERTAINTY_ASSIGNED_CONTEXT ( ( #221 ) ) GLOBAL_UNIT_ASSIGNED_CONTEXT ( ( #185, #74, #112 ) ) REPRESENTATION_CONTEXT ( 'NONE', 'WORKASPACE' ) );
#184 = DIRECTION ( 'NONE',  ( 1.000000000000000000, 0.0000000000000000000, 0.0000000000000000000 ) ) ;
#185 =( LENGTH_UNIT ( ) NAMED_UNIT ( * ) SI_UNIT ( .MILLI., .METRE. ) );
#186 = SHAPE_DEFINITION_REPRESENTATION ( #137, #168 ) ;
#187 = ORIENTED_EDGE ( 'NONE', *, *, #160, .F. ) ;
#188 = AXIS2_PLACEMENT_3D ( 'NONE', #127, #200, #36 ) ;
#189 = PERSON_AND_ORGANIZATION ( #90, #139 ) ;
#190 = FACE_OUTER_BOUND ( 'NONE', #121, .T. ) ;
#191 = ADVANCED_FACE ( 'NONE', ( #237 ), #143, .F. ) ;
#192 = VERTEX_POINT ( 'NONE', #38 ) ;
#193 = DIRECTION ( 'NONE',  ( -0.0000000000000000000, -0.0000000000000000000, -1.000000000000000000 ) ) ;
#194 = AXIS2_PLACEMENT_3D ( 'NONE', #126, #180, #21 ) ;
#195 = PERSON_AND_ORGANIZATION_ROLE ( 'creator' ) ;
#196 = DIRECTION ( 'NONE',  ( -1.000000000000000000, -1.387778780781445700E-016, 0.0000000000000000000 ) ) ;
#197 = ORIENTED_EDGE ( 'NONE', *, *, #135, .F. ) ;
#198 = APPROVAL_PERSON_ORGANIZATION ( #189, #46, #40 ) ;
#199 = LINE ( 'NONE', #141, #175 ) ;
#200 = DIRECTION ( 'NONE',  ( 0.0000000000000000000, -0.0000000000000000000, 1.000000000000000000 ) ) ;
#201 = ORIENTED_EDGE ( 'NONE', *, *, #95, .F. ) ;
#202 = CARTESIAN_POINT ( 'NONE',  ( -12.49999999999999500, -12.50000000000000500, 3.000000000000000000 ) ) ;
#203 = DIRECTION ( 'NONE',  ( 1.000000000000000000, 1.387778780781445400E-016, 0.0000000000000000000 ) ) ;
#204 = APPLICATION_CONTEXT ( 'configuration controlled 3d designs of mechanical parts and assemblies' ) ;
#205 = PERSON_AND_ORGANIZATION_ROLE ( 'creator' ) ;
#206 = LINE ( 'NONE', #47, #107 ) ;
#207 = PRODUCT_DEFINITION ( 'UNKNOWN', '', #62, #78 ) ;
#208 = ORIENTED_EDGE ( 'NONE', *, *, #77, .F. ) ;
#209 = PLANE ( 'NONE',  #89 ) ;
#210 = CALENDAR_DATE ( 2018, 8, 5 ) ;
#211 = APPROVAL_DATE_TIME ( #114, #46 ) ;
#212 = DIRECTION ( 'NONE',  ( -1.000000000000000000, 0.0000000000000000000, 0.0000000000000000000 ) ) ;
#213 = CARTESIAN_POINT ( 'NONE',  ( -12.49999999999999500, -12.50000000000000500, 3.000000000000000000 ) ) ;
#214 = FACE_OUTER_BOUND ( 'NONE', #50, .T. ) ;
#215 = CARTESIAN_POINT ( 'NONE',  ( 12.50000000000000500, -12.50000000000000200, 3.000000000000000000 ) ) ;
#216 = MECHANICAL_CONTEXT ( 'NONE', #147, 'mechanical' ) ;
#217 = CALENDAR_DATE ( 2018, 8, 5 ) ;
#218 = PERSON_AND_ORGANIZATION_ROLE ( 'design_owner' ) ;
#219 = ORIENTED_EDGE ( 'NONE', *, *, #82, .F. ) ;
#220 = ORIENTED_EDGE ( 'NONE', *, *, #115, .F. ) ;
#221 = UNCERTAINTY_MEASURE_WITH_UNIT (LENGTH_MEASURE( 1.000000000000000100E-005 ), #185, 'distance_accuracy_value', 'NONE');
#222 = ORIENTED_EDGE ( 'NONE', *, *, #95, .T. ) ;
#223 = CALENDAR_DATE ( 2018, 8, 5 ) ;
#224 = LINE ( 'NONE', #215, #44 ) ;
#225 = EDGE_CURVE ( 'NONE', #128, #192, #136, .T. ) ;
#226 = ORIENTED_EDGE ( 'NONE', *, *, #82, .T. ) ;
#227 = VECTOR ( 'NONE', #14, 1000.000000000000000 ) ;
#228 = SECURITY_CLASSIFICATION ( '', '', #30 ) ;
#229 = LINE ( 'NONE', #54, #227 ) ;
#230 = CARTESIAN_POINT ( 'NONE',  ( 12.50000000000000500, -12.50000000000000200, 3.000000000000000000 ) ) ;
#231 = CLOSED_SHELL ( 'NONE', ( #169, #45, #24, #191, #117, #170 ) ) ;
#232 = PLANE ( 'NONE',  #131 ) ;
#233 = FACE_OUTER_BOUND ( 'NONE', #155, .T. ) ;
#234 = DIRECTION ( 'NONE',  ( -1.000000000000000000, -1.387778780781445700E-016, 0.0000000000000000000 ) ) ;
#235 = PLANE ( 'NONE',  #100 ) ;
#236 = CARTESIAN_POINT ( 'NONE',  ( -12.49999999999999500, 12.49999999999999500, -3.000000000000000000 ) ) ;
#237 = FACE_OUTER_BOUND ( 'NONE', #171, .T. ) ;
ENDSEC;
END-ISO-10303-21;
