ISO-10303-21;
HEADER;
FILE_DESCRIPTION (( 'STEP AP203' ),
    '1' );
FILE_NAME ('Web Model 43367_20793.step',
    '2022-03-16T13:55:23',
    ( '' ),
    ( '' ),
    'SwSTEP 2.0',
    'SolidWorks 2021',
    '' );
FILE_SCHEMA (( 'CONFIG_CONTROL_DESIGN' ));
ENDSEC;

DATA;
#1 =( NAMED_UNIT ( * ) SI_UNIT ( $, .STERADIAN. ) SOLID_ANGLE_UNIT ( ) );
#2 = ORIENTED_EDGE ( 'NONE', *, *, #68, .F. ) ;
#3 = DIRECTION ( 'NONE',  ( -0.000000000000000000, -0.000000000000000000, -1.000000000000000000 ) ) ;
#4 = VERTEX_POINT ( 'NONE', #115 ) ;
#5 = CIRCLE ( 'NONE', #146, 7.500000000000000000 ) ;
#6 = PERSON_AND_ORGANIZATION ( #50, #125 ) ;
#7 = PERSON_AND_ORGANIZATION ( #50, #125 ) ;
#8 = PERSON_AND_ORGANIZATION ( #50, #125 ) ;
#9 = AXIS2_PLACEMENT_3D ( 'NONE', #107, #3, #103 ) ;
#10 = AXIS2_PLACEMENT_3D ( 'NONE', #27, #79, #69 ) ;
#11 = CARTESIAN_POINT ( 'NONE',  ( -7.500000000000000000, 0.000000000000000000, 1.000000000000000000 ) ) ;
#12 = UNCERTAINTY_MEASURE_WITH_UNIT (LENGTH_MEASURE( 1.000000000000000082E-05 ), #53, 'distance_accuracy_value', 'NONE');
#13 = CC_DESIGN_APPROVAL ( #66, ( #140 ) ) ;
#14 = DIRECTION ( 'NONE',  ( 0.000000000000000000, 0.000000000000000000, 1.000000000000000000 ) ) ;
#15 = CARTESIAN_POINT ( 'NONE',  ( 0.000000000000000000, 0.000000000000000000, 1.000000000000000000 ) ) ;
#16 = PRODUCT_DEFINITION_SHAPE ( 'NONE', 'NONE',  #24 ) ;
#17 = EDGE_LOOP ( 'NONE', ( #111, #29 ) ) ;
#18 = DIRECTION ( 'NONE',  ( -0.000000000000000000, -0.000000000000000000, -1.000000000000000000 ) ) ;
#19 = ORIENTED_EDGE ( 'NONE', *, *, #26, .T. ) ;
#20 = DATE_AND_TIME ( #97, #74 ) ;
#21 = APPROVAL_DATE_TIME ( #20, #30 ) ;
#22 = PERSON_AND_ORGANIZATION ( #50, #125 ) ;
#23 = APPROVAL_ROLE ( '' ) ;
#24 = PRODUCT_DEFINITION ( 'UNKNOWN', '', #140, #158 ) ;
#25 = CARTESIAN_POINT ( 'NONE',  ( 0.000000000000000000, 0.000000000000000000, 0.000000000000000000 ) ) ;
#26 = EDGE_CURVE ( 'NONE', #57, #4, #54, .T. ) ;
#27 = CARTESIAN_POINT ( 'NONE',  ( 0.000000000000000000, 0.000000000000000000, 1.000000000000000000 ) ) ;
#28 = CARTESIAN_POINT ( 'NONE',  ( 7.500000000000000000, 9.184850993605147944E-16, 1.000000000000000000 ) ) ;
#29 = ORIENTED_EDGE ( 'NONE', *, *, #112, .F. ) ;
#30 = APPROVAL ( #31, 'UNSPECIFIED' ) ;
#31 = APPROVAL_STATUS ( 'not_yet_approved' ) ;
#32 = COORDINATED_UNIVERSAL_TIME_OFFSET ( 5, 0, .BEHIND. ) ;
#33 = APPROVAL_ROLE ( '' ) ;
#34 = LOCAL_TIME ( 9, 55, 23.00000000000000000, #32 ) ;
#35 = CALENDAR_DATE ( 2022, 16, 3 ) ;
#36 = ORIENTED_EDGE ( 'NONE', *, *, #112, .T. ) ;
#37 = DIRECTION ( 'NONE',  ( -1.000000000000000000, 0.000000000000000000, 0.000000000000000000 ) ) ;
#38 = PLANE ( 'NONE',  #10 ) ;
#39 = LINE ( 'NONE', #144, #61 ) ;
#40 = ORIENTED_EDGE ( 'NONE', *, *, #26, .F. ) ;
#41 = PRODUCT ( 'Web Model 43367_20793', 'Web Model 43367_20793', '', ( #114 ) ) ;
#42 = APPLICATION_PROTOCOL_DEFINITION ( 'international standard', 'config_control_design', 1994, #167 ) ;
#43 = ORIENTED_EDGE ( 'NONE', *, *, #172, .T. ) ;
#44 = APPROVAL_DATE_TIME ( #169, #66 ) ;
#45 = EDGE_LOOP ( 'NONE', ( #58, #19, #36, #148 ) ) ;
#46 = CARTESIAN_POINT ( 'NONE',  ( 0.000000000000000000, 0.000000000000000000, 0.000000000000000000 ) ) ;
#47 = PERSON_AND_ORGANIZATION_ROLE ( 'creator' ) ;
#48 = CALENDAR_DATE ( 2022, 16, 3 ) ;
#49 = CIRCLE ( 'NONE', #129, 7.500000000000000000 ) ;
#50 = PERSON ( 'UNSPECIFIED', 'UNSPECIFIED', 'UNSPECIFIED', ('UNSPECIFIED'), ('UNSPECIFIED'), ('UNSPECIFIED') ) ;
#51 = AXIS2_PLACEMENT_3D ( 'NONE', #67, #92, #145 ) ;
#52 = DIRECTION ( 'NONE',  ( 1.000000000000000000, 0.000000000000000000, -0.000000000000000000 ) ) ;
#53 =( LENGTH_UNIT ( ) NAMED_UNIT ( * ) SI_UNIT ( .MILLI., .METRE. ) );
#54 = LINE ( 'NONE', #56, #159 ) ;
#55 = APPROVAL_PERSON_ORGANIZATION ( #8, #161, #23 ) ;
#56 = CARTESIAN_POINT ( 'NONE',  ( 7.500000000000000000, 9.184850993605147944E-16, 1.000000000000000000 ) ) ;
#57 = VERTEX_POINT ( 'NONE', #28 ) ;
#58 = ORIENTED_EDGE ( 'NONE', *, *, #172, .F. ) ;
#59 = PERSON_AND_ORGANIZATION_ROLE ( 'creator' ) ;
#60 = DIRECTION ( 'NONE',  ( 0.000000000000000000, 0.000000000000000000, 1.000000000000000000 ) ) ;
#61 = VECTOR ( 'NONE', #18, 1000.000000000000000 ) ;
#62 = DIRECTION ( 'NONE',  ( 1.000000000000000000, 0.000000000000000000, 0.000000000000000000 ) ) ;
#63 = PERSON_AND_ORGANIZATION_ROLE ( 'classification_officer' ) ;
#64 = CIRCLE ( 'NONE', #106, 7.500000000000000000 ) ;
#65 = FACE_OUTER_BOUND ( 'NONE', #45, .T. ) ;
#66 = APPROVAL ( #122, 'UNSPECIFIED' ) ;
#67 = CARTESIAN_POINT ( 'NONE',  ( 0.000000000000000000, 0.000000000000000000, 0.000000000000000000 ) ) ;
#68 = EDGE_CURVE ( 'NONE', #118, #57, #49, .T. ) ;
#69 = DIRECTION ( 'NONE',  ( 1.000000000000000000, 0.000000000000000000, -0.000000000000000000 ) ) ;
#70 = COORDINATED_UNIVERSAL_TIME_OFFSET ( 5, 0, .BEHIND. ) ;
#71 = CC_DESIGN_PERSON_AND_ORGANIZATION_ASSIGNMENT ( #6, #47, ( #140 ) ) ;
#72 =( GEOMETRIC_REPRESENTATION_CONTEXT ( 3 ) GLOBAL_UNCERTAINTY_ASSIGNED_CONTEXT ( ( #12 ) ) GLOBAL_UNIT_ASSIGNED_CONTEXT ( ( #53, #90, #1 ) ) REPRESENTATION_CONTEXT ( 'NONE', 'WORKASPACE' ) );
#73 = COORDINATED_UNIVERSAL_TIME_OFFSET ( 5, 0, .BEHIND. ) ;
#74 = LOCAL_TIME ( 9, 55, 23.00000000000000000, #168 ) ;
#75 = ADVANCED_FACE ( 'NONE', ( #80 ), #38, .T. ) ;
#76 = CC_DESIGN_SECURITY_CLASSIFICATION ( #163, ( #140 ) ) ;
#77 = DIRECTION ( 'NONE',  ( 0.000000000000000000, 0.000000000000000000, 1.000000000000000000 ) ) ;
#78 = CARTESIAN_POINT ( 'NONE',  ( -7.500000000000000000, 0.000000000000000000, 0.000000000000000000 ) ) ;
#79 = DIRECTION ( 'NONE',  ( 0.000000000000000000, 0.000000000000000000, 1.000000000000000000 ) ) ;
#80 = FACE_OUTER_BOUND ( 'NONE', #96, .T. ) ;
#81 = DIRECTION ( 'NONE',  ( 1.000000000000000000, 0.000000000000000000, 0.000000000000000000 ) ) ;
#82 = PRODUCT_RELATED_PRODUCT_CATEGORY ( 'detail', '', ( #41 ) ) ;
#83 = AXIS2_PLACEMENT_3D ( 'NONE', #164, #160, #37 ) ;
#84 = APPLICATION_PROTOCOL_DEFINITION ( 'international standard', 'config_control_design', 1994, #117 ) ;
#85 = ORIENTED_EDGE ( 'NONE', *, *, #98, .T. ) ;
#86 = PERSON_AND_ORGANIZATION ( #50, #125 ) ;
#87 = DATE_TIME_ROLE ( 'creation_date' ) ;
#88 = LOCAL_TIME ( 9, 55, 23.00000000000000000, #70 ) ;
#89 = CYLINDRICAL_SURFACE ( 'NONE', #9, 7.500000000000000000 ) ;
#90 =( NAMED_UNIT ( * ) PLANE_ANGLE_UNIT ( ) SI_UNIT ( $, .RADIAN. ) );
#91 = FACE_OUTER_BOUND ( 'NONE', #17, .T. ) ;
#92 = DIRECTION ( 'NONE',  ( 0.000000000000000000, 0.000000000000000000, 1.000000000000000000 ) ) ;
#93 = SHAPE_DEFINITION_REPRESENTATION ( #16, #150 ) ;
#94 = ORIENTED_EDGE ( 'NONE', *, *, #68, .T. ) ;
#95 = PERSON_AND_ORGANIZATION_ROLE ( 'design_supplier' ) ;
#96 = EDGE_LOOP ( 'NONE', ( #94, #43 ) ) ;
#97 = CALENDAR_DATE ( 2022, 16, 3 ) ;
#98 = EDGE_CURVE ( 'NONE', #166, #4, #136, .T. ) ;
#99 = DATE_AND_TIME ( #48, #127 ) ;
#100 = CC_DESIGN_DATE_AND_TIME_ASSIGNMENT ( #110, #87, ( #24 ) ) ;
#101 = DIRECTION ( 'NONE',  ( 1.000000000000000000, 0.000000000000000000, 0.000000000000000000 ) ) ;
#102 = ADVANCED_FACE ( 'NONE', ( #91 ), #142, .F. ) ;
#103 = DIRECTION ( 'NONE',  ( -1.000000000000000000, 0.000000000000000000, 0.000000000000000000 ) ) ;
#104 = CARTESIAN_POINT ( 'NONE',  ( 0.000000000000000000, 0.000000000000000000, 0.000000000000000000 ) ) ;
#105 = AXIS2_PLACEMENT_3D ( 'NONE', #46, #60, #62 ) ;
#106 = AXIS2_PLACEMENT_3D ( 'NONE', #104, #131, #101 ) ;
#107 = CARTESIAN_POINT ( 'NONE',  ( 0.000000000000000000, 0.000000000000000000, 1.000000000000000000 ) ) ;
#108 = DATE_AND_TIME ( #124, #120 ) ;
#109 = CC_DESIGN_PERSON_AND_ORGANIZATION_ASSIGNMENT ( #7, #63, ( #163 ) ) ;
#110 = DATE_AND_TIME ( #113, #34 ) ;
#111 = ORIENTED_EDGE ( 'NONE', *, *, #98, .F. ) ;
#112 = EDGE_CURVE ( 'NONE', #4, #166, #64, .T. ) ;
#113 = CALENDAR_DATE ( 2022, 16, 3 ) ;
#114 = MECHANICAL_CONTEXT ( 'NONE', #117, 'mechanical' ) ;
#115 = CARTESIAN_POINT ( 'NONE',  ( 7.500000000000000000, 9.184850993605147944E-16, 0.000000000000000000 ) ) ;
#116 = AXIS2_PLACEMENT_3D ( 'NONE', #25, #132, #52 ) ;
#117 = APPLICATION_CONTEXT ( 'configuration controlled 3d designs of mechanical parts and assemblies' ) ;
#118 = VERTEX_POINT ( 'NONE', #11 ) ;
#119 = FACE_OUTER_BOUND ( 'NONE', #152, .T. ) ;
#120 = LOCAL_TIME ( 9, 55, 23.00000000000000000, #73 ) ;
#121 = CLOSED_SHELL ( 'NONE', ( #141, #157, #75, #102 ) ) ;
#122 = APPROVAL_STATUS ( 'not_yet_approved' ) ;
#123 = SECURITY_CLASSIFICATION_LEVEL ( 'unclassified' ) ;
#124 = CALENDAR_DATE ( 2022, 16, 3 ) ;
#125 = ORGANIZATION ( 'UNSPECIFIED', 'UNSPECIFIED', '' ) ;
#126 = CC_DESIGN_DATE_AND_TIME_ASSIGNMENT ( #99, #156, ( #163 ) ) ;
#127 = LOCAL_TIME ( 9, 55, 23.00000000000000000, #170 ) ;
#128 = CARTESIAN_POINT ( 'NONE',  ( 0.000000000000000000, 0.000000000000000000, 1.000000000000000000 ) ) ;
#129 = AXIS2_PLACEMENT_3D ( 'NONE', #15, #77, #81 ) ;
#130 = DIRECTION ( 'NONE',  ( -0.000000000000000000, -0.000000000000000000, -1.000000000000000000 ) ) ;
#131 = DIRECTION ( 'NONE',  ( 0.000000000000000000, 0.000000000000000000, 1.000000000000000000 ) ) ;
#132 = DIRECTION ( 'NONE',  ( 0.000000000000000000, 0.000000000000000000, 1.000000000000000000 ) ) ;
#133 = ORIENTED_EDGE ( 'NONE', *, *, #162, .T. ) ;
#134 = PERSON_AND_ORGANIZATION ( #50, #125 ) ;
#135 = CC_DESIGN_PERSON_AND_ORGANIZATION_ASSIGNMENT ( #134, #154, ( #41 ) ) ;
#136 = CIRCLE ( 'NONE', #51, 7.500000000000000000 ) ;
#137 = APPROVAL_ROLE ( '' ) ;
#138 = APPROVAL_STATUS ( 'not_yet_approved' ) ;
#139 = CC_DESIGN_PERSON_AND_ORGANIZATION_ASSIGNMENT ( #22, #95, ( #140 ) ) ;
#140 = PRODUCT_DEFINITION_FORMATION_WITH_SPECIFIED_SOURCE ( 'ANY', '', #41, .NOT_KNOWN. ) ;
#141 = ADVANCED_FACE ( 'NONE', ( #65 ), #175, .T. ) ;
#142 = PLANE ( 'NONE',  #116 ) ;
#143 = MANIFOLD_SOLID_BREP ( 'Boss-Extrude1', #121 ) ;
#144 = CARTESIAN_POINT ( 'NONE',  ( -7.500000000000000000, 0.000000000000000000, 1.000000000000000000 ) ) ;
#145 = DIRECTION ( 'NONE',  ( 1.000000000000000000, 0.000000000000000000, 0.000000000000000000 ) ) ;
#146 = AXIS2_PLACEMENT_3D ( 'NONE', #128, #14, #147 ) ;
#147 = DIRECTION ( 'NONE',  ( 1.000000000000000000, 0.000000000000000000, 0.000000000000000000 ) ) ;
#148 = ORIENTED_EDGE ( 'NONE', *, *, #162, .F. ) ;
#149 = APPROVAL_PERSON_ORGANIZATION ( #151, #30, #33 ) ;
#150 = ADVANCED_BREP_SHAPE_REPRESENTATION ( 'Web Model 43367_20793', ( #143, #105 ), #72 ) ;
#151 = PERSON_AND_ORGANIZATION ( #50, #125 ) ;
#152 = EDGE_LOOP ( 'NONE', ( #40, #2, #133, #85 ) ) ;
#153 = PERSON_AND_ORGANIZATION ( #50, #125 ) ;
#154 = PERSON_AND_ORGANIZATION_ROLE ( 'design_owner' ) ;
#155 = CC_DESIGN_APPROVAL ( #161, ( #163 ) ) ;
#156 = DATE_TIME_ROLE ( 'classification_date' ) ;
#157 = ADVANCED_FACE ( 'NONE', ( #119 ), #89, .T. ) ;
#158 = DESIGN_CONTEXT ( 'detailed design', #167, 'design' ) ;
#159 = VECTOR ( 'NONE', #130, 1000.000000000000000 ) ;
#160 = DIRECTION ( 'NONE',  ( -0.000000000000000000, -0.000000000000000000, -1.000000000000000000 ) ) ;
#161 = APPROVAL ( #138, 'UNSPECIFIED' ) ;
#162 = EDGE_CURVE ( 'NONE', #118, #166, #39, .T. ) ;
#163 = SECURITY_CLASSIFICATION ( '', '', #123 ) ;
#164 = CARTESIAN_POINT ( 'NONE',  ( 0.000000000000000000, 0.000000000000000000, 1.000000000000000000 ) ) ;
#165 = APPROVAL_DATE_TIME ( #108, #161 ) ;
#166 = VERTEX_POINT ( 'NONE', #78 ) ;
#167 = APPLICATION_CONTEXT ( 'configuration controlled 3d designs of mechanical parts and assemblies' ) ;
#168 = COORDINATED_UNIVERSAL_TIME_OFFSET ( 5, 0, .BEHIND. ) ;
#169 = DATE_AND_TIME ( #35, #88 ) ;
#170 = COORDINATED_UNIVERSAL_TIME_OFFSET ( 5, 0, .BEHIND. ) ;
#171 = APPROVAL_PERSON_ORGANIZATION ( #86, #66, #137 ) ;
#172 = EDGE_CURVE ( 'NONE', #57, #118, #5, .T. ) ;
#173 = CC_DESIGN_PERSON_AND_ORGANIZATION_ASSIGNMENT ( #153, #59, ( #24 ) ) ;
#174 = CC_DESIGN_APPROVAL ( #30, ( #24 ) ) ;
#175 = CYLINDRICAL_SURFACE ( 'NONE', #83, 7.500000000000000000 ) ;
ENDSEC;
END-ISO-10303-21;
