ISO-10303-21;
HEADER;
FILE_DESCRIPTION (( 'STEP AP203' ),
    '1' );
FILE_NAME ('Web Model 46687_31414.step',
    '2017-04-10T16:07:43',
    ( '' ),
    ( '' ),
    'SwSTEP 2.0',
    'SolidWorks 2016',
    '' );
FILE_SCHEMA (( 'CONFIG_CONTROL_DESIGN' ));
ENDSEC;

DATA;
#1 = APPROVAL_DATE_TIME ( #39, #81 ) ;
#2 = LOCAL_TIME ( 12, 7, 43.00000000000000000, #42 ) ;
#3 = LINE ( 'NONE', #15, #103 ) ;
#4 = ADVANCED_FACE ( 'NONE', ( #61 ), #180, .F. ) ;
#5 = PERSON_AND_ORGANIZATION_ROLE ( 'creator' ) ;
#6 = EDGE_CURVE ( 'NONE', #215, #73, #147, .T. ) ;
#7 = APPROVAL_PERSON_ORGANIZATION ( #48, #81, #107 ) ;
#8 = CALENDAR_DATE ( 2017, 10, 4 ) ;
#9 = CARTESIAN_POINT ( 'NONE',  ( -9.000000000000003600, -14.99999999999999600, 0.0000000000000000000 ) ) ;
#10 = LINE ( 'NONE', #97, #184 ) ;
#11 = DIRECTION ( 'NONE',  ( 0.0000000000000000000, 0.0000000000000000000, 1.000000000000000000 ) ) ;
#12 = VECTOR ( 'NONE', #222, 1000.000000000000000 ) ;
#13 = PERSON_AND_ORGANIZATION ( #172, #141 ) ;
#14 = FACE_OUTER_BOUND ( 'NONE', #228, .T. ) ;
#15 = CARTESIAN_POINT ( 'NONE',  ( 8.999999999999992900, 15.00000000000000400, 0.0000000000000000000 ) ) ;
#16 = PERSON_AND_ORGANIZATION_ROLE ( 'design_owner' ) ;
#17 = EDGE_CURVE ( 'NONE', #62, #217, #54, .T. ) ;
#18 = VECTOR ( 'NONE', #66, 1000.000000000000000 ) ;
#19 = DIRECTION ( 'NONE',  ( 0.0000000000000000000, -0.0000000000000000000, -1.000000000000000000 ) ) ;
#20 = ORIENTED_EDGE ( 'NONE', *, *, #25, .F. ) ;
#21 = APPROVAL_STATUS ( 'not_yet_approved' ) ;
#22 = EDGE_LOOP ( 'NONE', ( #28, #121, #108, #166 ) ) ;
#23 = ORIENTED_EDGE ( 'NONE', *, *, #187, .F. ) ;
#24 = DIRECTION ( 'NONE',  ( -0.0000000000000000000, -0.0000000000000000000, -1.000000000000000000 ) ) ;
#25 = EDGE_CURVE ( 'NONE', #67, #101, #207, .T. ) ;
#26 = VERTEX_POINT ( 'NONE', #102 ) ;
#27 = ORIENTED_EDGE ( 'NONE', *, *, #35, .F. ) ;
#28 = ORIENTED_EDGE ( 'NONE', *, *, #170, .T. ) ;
#29 = DIRECTION ( 'NONE',  ( -1.156482317317871500E-016, 1.000000000000000000, -0.0000000000000000000 ) ) ;
#30 = VECTOR ( 'NONE', #47, 1000.000000000000000 ) ;
#31 = ORIENTED_EDGE ( 'NONE', *, *, #157, .F. ) ;
#32 = DIRECTION ( 'NONE',  ( -1.156482317317871500E-016, 1.000000000000000000, -0.0000000000000000000 ) ) ;
#33 = ADVANCED_BREP_SHAPE_REPRESENTATION ( 'Web Model 46687_31414', ( #118, #41 ), #191 ) ;
#34 = PERSON_AND_ORGANIZATION_ROLE ( 'creator' ) ;
#35 = EDGE_CURVE ( 'NONE', #101, #215, #105, .T. ) ;
#36 = CALENDAR_DATE ( 2017, 10, 4 ) ;
#37 = PLANE ( 'NONE',  #124 ) ;
#38 = CARTESIAN_POINT ( 'NONE',  ( 8.999999999999996400, -14.99999999999999600, 2.000000000000000000 ) ) ;
#39 = DATE_AND_TIME ( #87, #133 ) ;
#40 = VECTOR ( 'NONE', #185, 1000.000000000000000 ) ;
#41 = AXIS2_PLACEMENT_3D ( 'NONE', #93, #11, #112 ) ;
#42 = COORDINATED_UNIVERSAL_TIME_OFFSET ( 5, 0, .BEHIND. ) ;
#43 = LINE ( 'NONE', #236, #136 ) ;
#44 = EDGE_CURVE ( 'NONE', #73, #67, #149, .T. ) ;
#45 = CARTESIAN_POINT ( 'NONE',  ( -9.000000000000003600, -14.99999999999999600, 2.000000000000000000 ) ) ;
#46 = PRODUCT_DEFINITION_SHAPE ( 'NONE', 'NONE',  #68 ) ;
#47 = DIRECTION ( 'NONE',  ( 1.000000000000000000, 0.0000000000000000000, 0.0000000000000000000 ) ) ;
#48 = PERSON_AND_ORGANIZATION ( #172, #141 ) ;
#49 = FACE_OUTER_BOUND ( 'NONE', #138, .T. ) ;
#50 = LOCAL_TIME ( 12, 7, 43.00000000000000000, #96 ) ;
#51 = LINE ( 'NONE', #127, #143 ) ;
#52 = ADVANCED_FACE ( 'NONE', ( #98 ), #198, .F. ) ;
#53 = SECURITY_CLASSIFICATION_LEVEL ( 'unclassified' ) ;
#54 = LINE ( 'NONE', #175, #12 ) ;
#55 = APPROVAL_DATE_TIME ( #104, #137 ) ;
#56 = VECTOR ( 'NONE', #32, 1000.000000000000000 ) ;
#57 = CC_DESIGN_PERSON_AND_ORGANIZATION_ASSIGNMENT ( #94, #16, ( #64 ) ) ;
#58 = DIRECTION ( 'NONE',  ( -0.0000000000000000000, 0.0000000000000000000, 1.000000000000000000 ) ) ;
#59 =( NAMED_UNIT ( * ) PLANE_ANGLE_UNIT ( ) SI_UNIT ( $, .RADIAN. ) );
#60 = EDGE_CURVE ( 'NONE', #101, #217, #51, .T. ) ;
#61 = FACE_OUTER_BOUND ( 'NONE', #210, .T. ) ;
#62 = VERTEX_POINT ( 'NONE', #9 ) ;
#63 = CARTESIAN_POINT ( 'NONE',  ( 8.999999999999992900, 15.00000000000000400, 2.000000000000000000 ) ) ;
#64 = PRODUCT ( 'Web Model 46687_31414', 'Web Model 46687_31414', '', ( #237 ) ) ;
#65 = ORIENTED_EDGE ( 'NONE', *, *, #44, .T. ) ;
#66 = DIRECTION ( 'NONE',  ( -1.000000000000000000, -0.0000000000000000000, -0.0000000000000000000 ) ) ;
#67 = VERTEX_POINT ( 'NONE', #45 ) ;
#68 = PRODUCT_DEFINITION ( 'UNKNOWN', '', #128, #145 ) ;
#69 = ADVANCED_FACE ( 'NONE', ( #209 ), #37, .T. ) ;
#70 = DATE_TIME_ROLE ( 'classification_date' ) ;
#71 = DIRECTION ( 'NONE',  ( 1.156482317317871700E-016, -1.000000000000000000, 0.0000000000000000000 ) ) ;
#72 = ORIENTED_EDGE ( 'NONE', *, *, #35, .T. ) ;
#73 = VERTEX_POINT ( 'NONE', #109 ) ;
#74 = PLANE ( 'NONE',  #206 ) ;
#75 = EDGE_LOOP ( 'NONE', ( #110, #31, #223, #150 ) ) ;
#76 = UNCERTAINTY_MEASURE_WITH_UNIT (LENGTH_MEASURE( 1.000000000000000100E-005 ), #164, 'distance_accuracy_value', 'NONE');
#77 = DIRECTION ( 'NONE',  ( -0.0000000000000000000, 0.0000000000000000000, 1.000000000000000000 ) ) ;
#78 = AXIS2_PLACEMENT_3D ( 'NONE', #158, #123, #71 ) ;
#79 = EDGE_LOOP ( 'NONE', ( #72, #154, #65, #234 ) ) ;
#80 = COORDINATED_UNIVERSAL_TIME_OFFSET ( 5, 0, .BEHIND. ) ;
#81 = APPROVAL ( #226, 'UNSPECIFIED' ) ;
#82 = CARTESIAN_POINT ( 'NONE',  ( -9.000000000000007100, 15.00000000000000400, 2.000000000000000000 ) ) ;
#83 = CARTESIAN_POINT ( 'NONE',  ( -9.000000000000003600, -14.99999999999999600, 2.000000000000000000 ) ) ;
#84 = LOCAL_TIME ( 12, 7, 43.00000000000000000, #129 ) ;
#85 = APPLICATION_PROTOCOL_DEFINITION ( 'international standard', 'config_control_design', 1994, #202 ) ;
#86 = APPROVAL_ROLE ( '' ) ;
#87 = CALENDAR_DATE ( 2017, 10, 4 ) ;
#88 = VECTOR ( 'NONE', #117, 1000.000000000000000 ) ;
#89 = APPROVAL_PERSON_ORGANIZATION ( #135, #159, #86 ) ;
#90 = CC_DESIGN_APPROVAL ( #81, ( #68 ) ) ;
#91 = FACE_OUTER_BOUND ( 'NONE', #75, .T. ) ;
#92 = DIRECTION ( 'NONE',  ( 0.0000000000000000000, 1.000000000000000000, 0.0000000000000000000 ) ) ;
#93 = CARTESIAN_POINT ( 'NONE',  ( 0.0000000000000000000, 0.0000000000000000000, 0.0000000000000000000 ) ) ;
#94 = PERSON_AND_ORGANIZATION ( #172, #141 ) ;
#95 = VECTOR ( 'NONE', #196, 1000.000000000000000 ) ;
#96 = COORDINATED_UNIVERSAL_TIME_OFFSET ( 5, 0, .BEHIND. ) ;
#97 = CARTESIAN_POINT ( 'NONE',  ( -9.000000000000007100, 15.00000000000000400, 0.0000000000000000000 ) ) ;
#98 = FACE_OUTER_BOUND ( 'NONE', #22, .T. ) ;
#99 = CARTESIAN_POINT ( 'NONE',  ( -9.000000000000007100, 15.00000000000000400, 0.0000000000000000000 ) ) ;
#100 = AXIS2_PLACEMENT_3D ( 'NONE', #82, #220, #19 ) ;
#101 = VERTEX_POINT ( 'NONE', #38 ) ;
#102 = CARTESIAN_POINT ( 'NONE',  ( 8.999999999999992900, 15.00000000000000400, 0.0000000000000000000 ) ) ;
#103 = VECTOR ( 'NONE', #29, 1000.000000000000000 ) ;
#104 = DATE_AND_TIME ( #148, #208 ) ;
#105 = LINE ( 'NONE', #119, #56 ) ;
#106 = CC_DESIGN_PERSON_AND_ORGANIZATION_ASSIGNMENT ( #181, #5, ( #68 ) ) ;
#107 = APPROVAL_ROLE ( '' ) ;
#108 = ORIENTED_EDGE ( 'NONE', *, *, #6, .F. ) ;
#109 = CARTESIAN_POINT ( 'NONE',  ( -9.000000000000007100, 15.00000000000000400, 2.000000000000000000 ) ) ;
#110 = ORIENTED_EDGE ( 'NONE', *, *, #219, .T. ) ;
#111 = CARTESIAN_POINT ( 'NONE',  ( 8.999999999999992900, 15.00000000000000400, 2.000000000000000000 ) ) ;
#112 = DIRECTION ( 'NONE',  ( 1.000000000000000000, 0.0000000000000000000, 0.0000000000000000000 ) ) ;
#113 = ORIENTED_EDGE ( 'NONE', *, *, #17, .F. ) ;
#114 = ORIENTED_EDGE ( 'NONE', *, *, #187, .T. ) ;
#115 = DIRECTION ( 'NONE',  ( -0.0000000000000000000, -0.0000000000000000000, -1.000000000000000000 ) ) ;
#116 = CC_DESIGN_DATE_AND_TIME_ASSIGNMENT ( #235, #122, ( #68 ) ) ;
#117 = DIRECTION ( 'NONE',  ( 1.156482317317871500E-016, -1.000000000000000000, 0.0000000000000000000 ) ) ;
#118 = MANIFOLD_SOLID_BREP ( 'Extrude1', #161 ) ;
#119 = CARTESIAN_POINT ( 'NONE',  ( 8.999999999999992900, 15.00000000000000400, 2.000000000000000000 ) ) ;
#120 = ORIENTED_EDGE ( 'NONE', *, *, #60, .F. ) ;
#121 = ORIENTED_EDGE ( 'NONE', *, *, #204, .F. ) ;
#122 = DATE_TIME_ROLE ( 'creation_date' ) ;
#123 = DIRECTION ( 'NONE',  ( -1.000000000000000000, -1.156482317317871700E-016, 0.0000000000000000000 ) ) ;
#124 = AXIS2_PLACEMENT_3D ( 'NONE', #162, #58, #183 ) ;
#125 = ORIENTED_EDGE ( 'NONE', *, *, #170, .F. ) ;
#126 = APPROVAL_PERSON_ORGANIZATION ( #177, #137, #140 ) ;
#127 = CARTESIAN_POINT ( 'NONE',  ( 8.999999999999996400, -14.99999999999999600, 2.000000000000000000 ) ) ;
#128 = PRODUCT_DEFINITION_FORMATION_WITH_SPECIFIED_SOURCE ( 'ANY', '', #64, .NOT_KNOWN. ) ;
#129 = COORDINATED_UNIVERSAL_TIME_OFFSET ( 5, 0, .BEHIND. ) ;
#130 = CARTESIAN_POINT ( 'NONE',  ( -9.000000000000007100, 15.00000000000000400, 0.0000000000000000000 ) ) ;
#131 = DATE_AND_TIME ( #182, #2 ) ;
#132 = LINE ( 'NONE', #167, #95 ) ;
#133 = LOCAL_TIME ( 12, 7, 43.00000000000000000, #192 ) ;
#134 = LINE ( 'NONE', #130, #88 ) ;
#135 = PERSON_AND_ORGANIZATION ( #172, #141 ) ;
#136 = VECTOR ( 'NONE', #115, 1000.000000000000000 ) ;
#137 = APPROVAL ( #21, 'UNSPECIFIED' ) ;
#138 = EDGE_LOOP ( 'NONE', ( #168, #120, #20, #153 ) ) ;
#139 = ADVANCED_FACE ( 'NONE', ( #14 ), #144, .F. ) ;
#140 = APPROVAL_ROLE ( '' ) ;
#141 = ORGANIZATION ( 'UNSPECIFIED', 'UNSPECIFIED', '' ) ;
#142 = PERSON_AND_ORGANIZATION ( #172, #141 ) ;
#143 = VECTOR ( 'NONE', #24, 1000.000000000000000 ) ;
#144 = PLANE ( 'NONE',  #146 ) ;
#145 = DESIGN_CONTEXT ( 'detailed design', #202, 'design' ) ;
#146 = AXIS2_PLACEMENT_3D ( 'NONE', #165, #77, #214 ) ;
#147 = LINE ( 'NONE', #176, #18 ) ;
#148 = CALENDAR_DATE ( 2017, 10, 4 ) ;
#149 = LINE ( 'NONE', #152, #201 ) ;
#150 = ORIENTED_EDGE ( 'NONE', *, *, #204, .T. ) ;
#151 = CC_DESIGN_APPROVAL ( #137, ( #128 ) ) ;
#152 = CARTESIAN_POINT ( 'NONE',  ( -9.000000000000007100, 15.00000000000000400, 2.000000000000000000 ) ) ;
#153 = ORIENTED_EDGE ( 'NONE', *, *, #157, .T. ) ;
#154 = ORIENTED_EDGE ( 'NONE', *, *, #6, .T. ) ;
#155 = ADVANCED_FACE ( 'NONE', ( #91 ), #232, .F. ) ;
#156 = PERSON_AND_ORGANIZATION_ROLE ( 'design_supplier' ) ;
#157 = EDGE_CURVE ( 'NONE', #67, #62, #43, .T. ) ;
#158 = CARTESIAN_POINT ( 'NONE',  ( 8.999999999999992900, 15.00000000000000400, 2.000000000000000000 ) ) ;
#159 = APPROVAL ( #203, 'UNSPECIFIED' ) ;
#160 = ORIENTED_EDGE ( 'NONE', *, *, #219, .F. ) ;
#161 = CLOSED_SHELL ( 'NONE', ( #4, #52, #155, #225, #69, #139 ) ) ;
#162 = CARTESIAN_POINT ( 'NONE',  ( 8.999999999999996400, -14.99999999999999600, 2.000000000000000000 ) ) ;
#163 = CC_DESIGN_PERSON_AND_ORGANIZATION_ASSIGNMENT ( #13, #34, ( #128 ) ) ;
#164 =( LENGTH_UNIT ( ) NAMED_UNIT ( * ) SI_UNIT ( .MILLI., .METRE. ) );
#165 = CARTESIAN_POINT ( 'NONE',  ( 8.999999999999996400, -14.99999999999999600, 0.0000000000000000000 ) ) ;
#166 = ORIENTED_EDGE ( 'NONE', *, *, #231, .T. ) ;
#167 = CARTESIAN_POINT ( 'NONE',  ( -9.000000000000007100, 15.00000000000000400, 2.000000000000000000 ) ) ;
#168 = ORIENTED_EDGE ( 'NONE', *, *, #17, .T. ) ;
#169 = DIRECTION ( 'NONE',  ( 1.000000000000000000, 1.156482317317871700E-016, -0.0000000000000000000 ) ) ;
#170 = EDGE_CURVE ( 'NONE', #26, #221, #10, .T. ) ;
#171 = DIRECTION ( 'NONE',  ( 1.156482317317871500E-016, -1.000000000000000000, 0.0000000000000000000 ) ) ;
#172 = PERSON ( 'UNSPECIFIED', 'UNSPECIFIED', 'UNSPECIFIED', ('UNSPECIFIED'), ('UNSPECIFIED'), ('UNSPECIFIED') ) ;
#173 = CC_DESIGN_APPROVAL ( #159, ( #197 ) ) ;
#174 = AXIS2_PLACEMENT_3D ( 'NONE', #188, #169, #194 ) ;
#175 = CARTESIAN_POINT ( 'NONE',  ( -9.000000000000003600, -14.99999999999999600, 0.0000000000000000000 ) ) ;
#176 = CARTESIAN_POINT ( 'NONE',  ( -9.000000000000007100, 15.00000000000000400, 2.000000000000000000 ) ) ;
#177 = PERSON_AND_ORGANIZATION ( #172, #141 ) ;
#178 = CC_DESIGN_PERSON_AND_ORGANIZATION_ASSIGNMENT ( #200, #156, ( #128 ) ) ;
#179 = PERSON_AND_ORGANIZATION_ROLE ( 'classification_officer' ) ;
#180 = PLANE ( 'NONE',  #78 ) ;
#181 = PERSON_AND_ORGANIZATION ( #172, #141 ) ;
#182 = CALENDAR_DATE ( 2017, 10, 4 ) ;
#183 = DIRECTION ( 'NONE',  ( 1.000000000000000000, 0.0000000000000000000, 0.0000000000000000000 ) ) ;
#184 = VECTOR ( 'NONE', #216, 1000.000000000000000 ) ;
#185 = DIRECTION ( 'NONE',  ( -0.0000000000000000000, -0.0000000000000000000, -1.000000000000000000 ) ) ;
#186 =( NAMED_UNIT ( * ) SI_UNIT ( $, .STERADIAN. ) SOLID_ANGLE_UNIT ( ) );
#187 = EDGE_CURVE ( 'NONE', #217, #26, #3, .T. ) ;
#188 = CARTESIAN_POINT ( 'NONE',  ( -9.000000000000007100, 15.00000000000000400, 2.000000000000000000 ) ) ;
#189 = APPROVAL_DATE_TIME ( #131, #159 ) ;
#190 = CC_DESIGN_SECURITY_CLASSIFICATION ( #197, ( #128 ) ) ;
#191 =( GEOMETRIC_REPRESENTATION_CONTEXT ( 3 ) GLOBAL_UNCERTAINTY_ASSIGNED_CONTEXT ( ( #76 ) ) GLOBAL_UNIT_ASSIGNED_CONTEXT ( ( #164, #59, #186 ) ) REPRESENTATION_CONTEXT ( 'NONE', 'WORKASPACE' ) );
#192 = COORDINATED_UNIVERSAL_TIME_OFFSET ( 5, 0, .BEHIND. ) ;
#193 = LINE ( 'NONE', #111, #40 ) ;
#194 = DIRECTION ( 'NONE',  ( -1.156482317317871700E-016, 1.000000000000000000, 0.0000000000000000000 ) ) ;
#195 = DATE_AND_TIME ( #8, #50 ) ;
#196 = DIRECTION ( 'NONE',  ( -0.0000000000000000000, -0.0000000000000000000, -1.000000000000000000 ) ) ;
#197 = SECURITY_CLASSIFICATION ( '', '', #53 ) ;
#198 = PLANE ( 'NONE',  #100 ) ;
#199 = SHAPE_DEFINITION_REPRESENTATION ( #46, #33 ) ;
#200 = PERSON_AND_ORGANIZATION ( #172, #141 ) ;
#201 = VECTOR ( 'NONE', #171, 1000.000000000000000 ) ;
#202 = APPLICATION_CONTEXT ( 'configuration controlled 3d designs of mechanical parts and assemblies' ) ;
#203 = APPROVAL_STATUS ( 'not_yet_approved' ) ;
#204 = EDGE_CURVE ( 'NONE', #73, #221, #132, .T. ) ;
#205 = PRODUCT_RELATED_PRODUCT_CATEGORY ( 'detail', '', ( #64 ) ) ;
#206 = AXIS2_PLACEMENT_3D ( 'NONE', #212, #92, #229 ) ;
#207 = LINE ( 'NONE', #83, #30 ) ;
#208 = LOCAL_TIME ( 12, 7, 43.00000000000000000, #80 ) ;
#209 = FACE_OUTER_BOUND ( 'NONE', #79, .T. ) ;
#210 = EDGE_LOOP ( 'NONE', ( #114, #233, #27, #227 ) ) ;
#211 = CC_DESIGN_PERSON_AND_ORGANIZATION_ASSIGNMENT ( #142, #179, ( #197 ) ) ;
#212 = CARTESIAN_POINT ( 'NONE',  ( -9.000000000000003600, -14.99999999999999600, 2.000000000000000000 ) ) ;
#213 = APPLICATION_PROTOCOL_DEFINITION ( 'international standard', 'config_control_design', 1994, #230 ) ;
#214 = DIRECTION ( 'NONE',  ( 1.000000000000000000, 0.0000000000000000000, 0.0000000000000000000 ) ) ;
#215 = VERTEX_POINT ( 'NONE', #63 ) ;
#216 = DIRECTION ( 'NONE',  ( -1.000000000000000000, -0.0000000000000000000, -0.0000000000000000000 ) ) ;
#217 = VERTEX_POINT ( 'NONE', #218 ) ;
#218 = CARTESIAN_POINT ( 'NONE',  ( 8.999999999999996400, -14.99999999999999600, 0.0000000000000000000 ) ) ;
#219 = EDGE_CURVE ( 'NONE', #221, #62, #134, .T. ) ;
#220 = DIRECTION ( 'NONE',  ( 0.0000000000000000000, -1.000000000000000000, 0.0000000000000000000 ) ) ;
#221 = VERTEX_POINT ( 'NONE', #99 ) ;
#222 = DIRECTION ( 'NONE',  ( 1.000000000000000000, 0.0000000000000000000, 0.0000000000000000000 ) ) ;
#223 = ORIENTED_EDGE ( 'NONE', *, *, #44, .F. ) ;
#224 = CC_DESIGN_DATE_AND_TIME_ASSIGNMENT ( #195, #70, ( #197 ) ) ;
#225 = ADVANCED_FACE ( 'NONE', ( #49 ), #74, .F. ) ;
#226 = APPROVAL_STATUS ( 'not_yet_approved' ) ;
#227 = ORIENTED_EDGE ( 'NONE', *, *, #60, .T. ) ;
#228 = EDGE_LOOP ( 'NONE', ( #23, #113, #160, #125 ) ) ;
#229 = DIRECTION ( 'NONE',  ( 0.0000000000000000000, -0.0000000000000000000, 1.000000000000000000 ) ) ;
#230 = APPLICATION_CONTEXT ( 'configuration controlled 3d designs of mechanical parts and assemblies' ) ;
#231 = EDGE_CURVE ( 'NONE', #215, #26, #193, .T. ) ;
#232 = PLANE ( 'NONE',  #174 ) ;
#233 = ORIENTED_EDGE ( 'NONE', *, *, #231, .F. ) ;
#234 = ORIENTED_EDGE ( 'NONE', *, *, #25, .T. ) ;
#235 = DATE_AND_TIME ( #36, #84 ) ;
#236 = CARTESIAN_POINT ( 'NONE',  ( -9.000000000000003600, -14.99999999999999600, 2.000000000000000000 ) ) ;
#237 = MECHANICAL_CONTEXT ( 'NONE', #230, 'mechanical' ) ;
ENDSEC;
END-ISO-10303-21;
