ISO-10303-21;
HEADER;
FILE_DESCRIPTION (( 'STEP AP203' ),
    '1' );
FILE_NAME ('Web Model 15403_15782.step',
    '2020-11-04T13:39:39',
    ( '' ),
    ( '' ),
    'SwSTEP 2.0',
    'SolidWorks 2018',
    '' );
FILE_SCHEMA (( 'CONFIG_CONTROL_DESIGN' ));
ENDSEC;

DATA;
#1 = AXIS2_PLACEMENT_3D ( 'NONE', #40, #173, #107 ) ;
#2 = LOCAL_TIME ( 8, 39, 39.00000000000000000, #69 ) ;
#3 = ORIENTED_EDGE ( 'NONE', *, *, #27, .T. ) ;
#4 = DIRECTION ( 'NONE',  ( 1.000000000000000000, 0.0000000000000000000, 0.0000000000000000000 ) ) ;
#5 = DIRECTION ( 'NONE',  ( 0.0000000000000000000, 0.0000000000000000000, -1.000000000000000000 ) ) ;
#6 = DIRECTION ( 'NONE',  ( 0.0000000000000000000, 0.0000000000000000000, -1.000000000000000000 ) ) ;
#7 = CARTESIAN_POINT ( 'NONE',  ( 1.500000000000000000, 1.555301434917138433E-15, -12.69999999999999929 ) ) ;
#8 = CIRCLE ( 'NONE', #44, 12.69999999999999929 ) ;
#9 = DIRECTION ( 'NONE',  ( 0.0000000000000000000, 0.0000000000000000000, -1.000000000000000000 ) ) ;
#10 = PERSON_AND_ORGANIZATION_ROLE ( 'design_supplier' ) ;
#11 = DATE_TIME_ROLE ( 'classification_date' ) ;
#12 = PERSON_AND_ORGANIZATION ( #72, #127 ) ;
#13 = VERTEX_POINT ( 'NONE', #79 ) ;
#14 = DESIGN_CONTEXT ( 'detailed design', #65, 'design' ) ;
#15 = APPROVAL_DATE_TIME ( #165, #71 ) ;
#16 = ADVANCED_FACE ( 'NONE', ( #96 ), #49, .F. ) ;
#17 = VECTOR ( 'NONE', #149, 1000.000000000000000 ) ;
#18 = PERSON_AND_ORGANIZATION ( #72, #127 ) ;
#19 = ORIENTED_EDGE ( 'NONE', *, *, #74, .F. ) ;
#20 = CC_DESIGN_APPROVAL ( #71, ( #59 ) ) ;
#21 = DIRECTION ( 'NONE',  ( 1.000000000000000000, 0.0000000000000000000, 0.0000000000000000000 ) ) ;
#22 = CARTESIAN_POINT ( 'NONE',  ( 1.500000000000000000, 1.555301434917138433E-15, -12.69999999999999929 ) ) ;
#23 = COORDINATED_UNIVERSAL_TIME_OFFSET ( 5, 0, .BEHIND. ) ;
#24 = DIRECTION ( 'NONE',  ( 0.0000000000000000000, 0.0000000000000000000, -1.000000000000000000 ) ) ;
#25 = LOCAL_TIME ( 8, 39, 39.00000000000000000, #105 ) ;
#26 = FACE_OUTER_BOUND ( 'NONE', #122, .T. ) ;
#27 = EDGE_CURVE ( 'NONE', #85, #106, #132, .T. ) ;
#28 = ADVANCED_FACE ( 'NONE', ( #26 ), #158, .T. ) ;
#29 = CC_DESIGN_DATE_AND_TIME_ASSIGNMENT ( #136, #135, ( #59 ) ) ;
#30 = CALENDAR_DATE ( 2020, 4, 11 ) ;
#31 = DATE_AND_TIME ( #30, #25 ) ;
#32 = ORIENTED_EDGE ( 'NONE', *, *, #67, .T. ) ;
#33 = ADVANCED_BREP_SHAPE_REPRESENTATION ( 'Web Model 15403_15782', ( #66, #1 ), #95 ) ;
#34 = DIRECTION ( 'NONE',  ( 0.0000000000000000000, 0.0000000000000000000, -1.000000000000000000 ) ) ;
#35 = EDGE_LOOP ( 'NONE', ( #119, #39, #73, #159 ) ) ;
#36 = CARTESIAN_POINT ( 'NONE',  ( 1.500000000000000000, 0.0000000000000000000, 0.0000000000000000000 ) ) ;
#37 = AXIS2_PLACEMENT_3D ( 'NONE', #146, #4, #24 ) ;
#38 = CARTESIAN_POINT ( 'NONE',  ( -1.500000000000000000, 0.0000000000000000000, 0.0000000000000000000 ) ) ;
#39 = ORIENTED_EDGE ( 'NONE', *, *, #74, .T. ) ;
#40 = CARTESIAN_POINT ( 'NONE',  ( 0.0000000000000000000, 0.0000000000000000000, 0.0000000000000000000 ) ) ;
#41 = SECURITY_CLASSIFICATION_LEVEL ( 'unclassified' ) ;
#42 = CC_DESIGN_DATE_AND_TIME_ASSIGNMENT ( #43, #11, ( #89 ) ) ;
#43 = DATE_AND_TIME ( #68, #58 ) ;
#44 = AXIS2_PLACEMENT_3D ( 'NONE', #60, #62, #169 ) ;
#45 = LINE ( 'NONE', #78, #17 ) ;
#46 = EDGE_LOOP ( 'NONE', ( #3, #126 ) ) ;
#47 = ORIENTED_EDGE ( 'NONE', *, *, #145, .F. ) ;
#48 = CC_DESIGN_APPROVAL ( #111, ( #89 ) ) ;
#49 = PLANE ( 'NONE',  #163 ) ;
#50 = CARTESIAN_POINT ( 'NONE',  ( -1.500000000000000000, 1.555301434917138433E-15, -12.69999999999999929 ) ) ;
#51 = PERSON_AND_ORGANIZATION ( #72, #127 ) ;
#52 = CARTESIAN_POINT ( 'NONE',  ( 1.500000000000000000, 0.0000000000000000000, 0.0000000000000000000 ) ) ;
#53 = APPROVAL_STATUS ( 'not_yet_approved' ) ;
#54 =( LENGTH_UNIT ( ) NAMED_UNIT ( * ) SI_UNIT ( .MILLI., .METRE. ) );
#55 = APPROVAL_ROLE ( '' ) ;
#56 = COORDINATED_UNIVERSAL_TIME_OFFSET ( 5, 0, .BEHIND. ) ;
#57 = FACE_OUTER_BOUND ( 'NONE', #46, .T. ) ;
#58 = LOCAL_TIME ( 8, 39, 39.00000000000000000, #56 ) ;
#59 = PRODUCT_DEFINITION ( 'UNKNOWN', '', #91, #14 ) ;
#60 = CARTESIAN_POINT ( 'NONE',  ( -1.500000000000000000, 0.0000000000000000000, 0.0000000000000000000 ) ) ;
#61 = DIRECTION ( 'NONE',  ( 1.000000000000000000, 0.0000000000000000000, 0.0000000000000000000 ) ) ;
#62 = DIRECTION ( 'NONE',  ( 1.000000000000000000, 0.0000000000000000000, 0.0000000000000000000 ) ) ;
#63 = LINE ( 'NONE', #22, #156 ) ;
#64 = PERSON_AND_ORGANIZATION_ROLE ( 'classification_officer' ) ;
#65 = APPLICATION_CONTEXT ( 'configuration controlled 3d designs of mechanical parts and assemblies' ) ;
#66 = MANIFOLD_SOLID_BREP ( 'Boss-Extrude1', #157 ) ;
#67 = EDGE_CURVE ( 'NONE', #13, #86, #8, .T. ) ;
#68 = CALENDAR_DATE ( 2020, 4, 11 ) ;
#69 = COORDINATED_UNIVERSAL_TIME_OFFSET ( 5, 0, .BEHIND. ) ;
#70 = ORIENTED_EDGE ( 'NONE', *, *, #27, .F. ) ;
#71 = APPROVAL ( #53, 'UNSPECIFIED' ) ;
#72 = PERSON ( 'UNSPECIFIED', 'UNSPECIFIED', 'UNSPECIFIED', ('UNSPECIFIED'), ('UNSPECIFIED'), ('UNSPECIFIED') ) ;
#73 = ORIENTED_EDGE ( 'NONE', *, *, #145, .T. ) ;
#74 = EDGE_CURVE ( 'NONE', #106, #86, #63, .T. ) ;
#75 = PERSON_AND_ORGANIZATION ( #72, #127 ) ;
#76 = ORIENTED_EDGE ( 'NONE', *, *, #171, .T. ) ;
#77 = AXIS2_PLACEMENT_3D ( 'NONE', #118, #133, #117 ) ;
#78 = CARTESIAN_POINT ( 'NONE',  ( 1.500000000000000000, 0.0000000000000000000, 12.69999999999999929 ) ) ;
#79 = CARTESIAN_POINT ( 'NONE',  ( -1.500000000000000000, 0.0000000000000000000, 12.69999999999999929 ) ) ;
#80 = COORDINATED_UNIVERSAL_TIME_OFFSET ( 5, 0, .BEHIND. ) ;
#81 = APPLICATION_PROTOCOL_DEFINITION ( 'international standard', 'config_control_design', 1994, #65 ) ;
#82 = CC_DESIGN_PERSON_AND_ORGANIZATION_ASSIGNMENT ( #97, #121, ( #91 ) ) ;
#83 = PERSON_AND_ORGANIZATION_ROLE ( 'design_owner' ) ;
#84 = APPROVAL_ROLE ( '' ) ;
#85 = VERTEX_POINT ( 'NONE', #104 ) ;
#86 = VERTEX_POINT ( 'NONE', #50 ) ;
#87 = APPROVAL ( #93, 'UNSPECIFIED' ) ;
#88 = DATE_AND_TIME ( #170, #103 ) ;
#89 = SECURITY_CLASSIFICATION ( '', '', #41 ) ;
#90 = PERSON_AND_ORGANIZATION ( #72, #127 ) ;
#91 = PRODUCT_DEFINITION_FORMATION_WITH_SPECIFIED_SOURCE ( 'ANY', '', #155, .NOT_KNOWN. ) ;
#92 = DIRECTION ( 'NONE',  ( -1.000000000000000000, -0.0000000000000000000, -0.0000000000000000000 ) ) ;
#93 = APPROVAL_STATUS ( 'not_yet_approved' ) ;
#94 = CYLINDRICAL_SURFACE ( 'NONE', #98, 12.69999999999999929 ) ;
#95 =( GEOMETRIC_REPRESENTATION_CONTEXT ( 3 ) GLOBAL_UNCERTAINTY_ASSIGNED_CONTEXT ( ( #116 ) ) GLOBAL_UNIT_ASSIGNED_CONTEXT ( ( #54, #152, #140 ) ) REPRESENTATION_CONTEXT ( 'NONE', 'WORKASPACE' ) );
#96 = FACE_OUTER_BOUND ( 'NONE', #174, .T. ) ;
#97 = PERSON_AND_ORGANIZATION ( #72, #127 ) ;
#98 = AXIS2_PLACEMENT_3D ( 'NONE', #36, #92, #148 ) ;
#99 = CIRCLE ( 'NONE', #108, 12.69999999999999929 ) ;
#100 = EDGE_CURVE ( 'NONE', #106, #85, #99, .T. ) ;
#101 = CC_DESIGN_PERSON_AND_ORGANIZATION_ASSIGNMENT ( #90, #172, ( #59 ) ) ;
#102 = FACE_OUTER_BOUND ( 'NONE', #35, .T. ) ;
#103 = LOCAL_TIME ( 8, 39, 39.00000000000000000, #80 ) ;
#104 = CARTESIAN_POINT ( 'NONE',  ( 1.500000000000000000, 0.0000000000000000000, 12.69999999999999929 ) ) ;
#105 = COORDINATED_UNIVERSAL_TIME_OFFSET ( 5, 0, .BEHIND. ) ;
#106 = VERTEX_POINT ( 'NONE', #7 ) ;
#107 = DIRECTION ( 'NONE',  ( 1.000000000000000000, 0.0000000000000000000, 0.0000000000000000000 ) ) ;
#108 = AXIS2_PLACEMENT_3D ( 'NONE', #161, #21, #34 ) ;
#109 = APPLICATION_CONTEXT ( 'configuration controlled 3d designs of mechanical parts and assemblies' ) ;
#110 = APPROVAL_STATUS ( 'not_yet_approved' ) ;
#111 = APPROVAL ( #110, 'UNSPECIFIED' ) ;
#112 = CIRCLE ( 'NONE', #120, 12.69999999999999929 ) ;
#113 = CC_DESIGN_APPROVAL ( #87, ( #91 ) ) ;
#114 = ADVANCED_FACE ( 'NONE', ( #102 ), #94, .T. ) ;
#115 = CC_DESIGN_PERSON_AND_ORGANIZATION_ASSIGNMENT ( #51, #10, ( #91 ) ) ;
#116 = UNCERTAINTY_MEASURE_WITH_UNIT (LENGTH_MEASURE( 1.000000000000000082E-05 ), #54, 'distance_accuracy_value', 'NONE');
#117 = DIRECTION ( 'NONE',  ( 0.0000000000000000000, 0.0000000000000000000, 1.000000000000000000 ) ) ;
#118 = CARTESIAN_POINT ( 'NONE',  ( 1.500000000000000000, 0.0000000000000000000, 0.0000000000000000000 ) ) ;
#119 = ORIENTED_EDGE ( 'NONE', *, *, #100, .F. ) ;
#120 = AXIS2_PLACEMENT_3D ( 'NONE', #147, #61, #6 ) ;
#121 = PERSON_AND_ORGANIZATION_ROLE ( 'creator' ) ;
#122 = EDGE_LOOP ( 'NONE', ( #19, #70, #76, #32 ) ) ;
#123 = MECHANICAL_CONTEXT ( 'NONE', #109, 'mechanical' ) ;
#124 = CC_DESIGN_PERSON_AND_ORGANIZATION_ASSIGNMENT ( #12, #64, ( #89 ) ) ;
#125 = CALENDAR_DATE ( 2020, 4, 11 ) ;
#126 = ORIENTED_EDGE ( 'NONE', *, *, #100, .T. ) ;
#127 = ORGANIZATION ( 'UNSPECIFIED', 'UNSPECIFIED', '' ) ;
#128 = AXIS2_PLACEMENT_3D ( 'NONE', #52, #151, #5 ) ;
#129 = ORIENTED_EDGE ( 'NONE', *, *, #67, .F. ) ;
#130 = CC_DESIGN_SECURITY_CLASSIFICATION ( #89, ( #91 ) ) ;
#131 = PRODUCT_DEFINITION_SHAPE ( 'NONE', 'NONE',  #59 ) ;
#132 = CIRCLE ( 'NONE', #37, 12.69999999999999929 ) ;
#133 = DIRECTION ( 'NONE',  ( -1.000000000000000000, -0.0000000000000000000, -0.0000000000000000000 ) ) ;
#134 = PLANE ( 'NONE',  #128 ) ;
#135 = DATE_TIME_ROLE ( 'creation_date' ) ;
#136 = DATE_AND_TIME ( #160, #142 ) ;
#137 = APPLICATION_PROTOCOL_DEFINITION ( 'international standard', 'config_control_design', 1994, #109 ) ;
#138 = CC_DESIGN_PERSON_AND_ORGANIZATION_ASSIGNMENT ( #139, #83, ( #155 ) ) ;
#139 = PERSON_AND_ORGANIZATION ( #72, #127 ) ;
#140 =( NAMED_UNIT ( * ) SI_UNIT ( $, .STERADIAN. ) SOLID_ANGLE_UNIT ( ) );
#141 = APPROVAL_DATE_TIME ( #31, #111 ) ;
#142 = LOCAL_TIME ( 8, 39, 39.00000000000000000, #23 ) ;
#143 = PRODUCT_RELATED_PRODUCT_CATEGORY ( 'detail', '', ( #155 ) ) ;
#144 = APPROVAL_DATE_TIME ( #88, #87 ) ;
#145 = EDGE_CURVE ( 'NONE', #86, #13, #112, .T. ) ;
#146 = CARTESIAN_POINT ( 'NONE',  ( 1.500000000000000000, 0.0000000000000000000, 0.0000000000000000000 ) ) ;
#147 = CARTESIAN_POINT ( 'NONE',  ( -1.500000000000000000, 0.0000000000000000000, 0.0000000000000000000 ) ) ;
#148 = DIRECTION ( 'NONE',  ( 0.0000000000000000000, 0.0000000000000000000, 1.000000000000000000 ) ) ;
#149 = DIRECTION ( 'NONE',  ( -1.000000000000000000, -0.0000000000000000000, -0.0000000000000000000 ) ) ;
#150 = PERSON_AND_ORGANIZATION ( #72, #127 ) ;
#151 = DIRECTION ( 'NONE',  ( 1.000000000000000000, 0.0000000000000000000, 0.0000000000000000000 ) ) ;
#152 =( NAMED_UNIT ( * ) PLANE_ANGLE_UNIT ( ) SI_UNIT ( $, .RADIAN. ) );
#153 = APPROVAL_ROLE ( '' ) ;
#154 = ADVANCED_FACE ( 'NONE', ( #57 ), #134, .T. ) ;
#155 = PRODUCT ( 'Web Model 15403_15782', 'Web Model 15403_15782', '', ( #123 ) ) ;
#156 = VECTOR ( 'NONE', #168, 1000.000000000000000 ) ;
#157 = CLOSED_SHELL ( 'NONE', ( #114, #28, #154, #16 ) ) ;
#158 = CYLINDRICAL_SURFACE ( 'NONE', #77, 12.69999999999999929 ) ;
#159 = ORIENTED_EDGE ( 'NONE', *, *, #171, .F. ) ;
#160 = CALENDAR_DATE ( 2020, 4, 11 ) ;
#161 = CARTESIAN_POINT ( 'NONE',  ( 1.500000000000000000, 0.0000000000000000000, 0.0000000000000000000 ) ) ;
#162 = APPROVAL_PERSON_ORGANIZATION ( #18, #71, #84 ) ;
#163 = AXIS2_PLACEMENT_3D ( 'NONE', #38, #166, #9 ) ;
#164 = APPROVAL_PERSON_ORGANIZATION ( #150, #87, #153 ) ;
#165 = DATE_AND_TIME ( #125, #2 ) ;
#166 = DIRECTION ( 'NONE',  ( 1.000000000000000000, 0.0000000000000000000, 0.0000000000000000000 ) ) ;
#167 = APPROVAL_PERSON_ORGANIZATION ( #75, #111, #55 ) ;
#168 = DIRECTION ( 'NONE',  ( -1.000000000000000000, -0.0000000000000000000, -0.0000000000000000000 ) ) ;
#169 = DIRECTION ( 'NONE',  ( 0.0000000000000000000, 0.0000000000000000000, -1.000000000000000000 ) ) ;
#170 = CALENDAR_DATE ( 2020, 4, 11 ) ;
#171 = EDGE_CURVE ( 'NONE', #85, #13, #45, .T. ) ;
#172 = PERSON_AND_ORGANIZATION_ROLE ( 'creator' ) ;
#173 = DIRECTION ( 'NONE',  ( 0.0000000000000000000, 0.0000000000000000000, 1.000000000000000000 ) ) ;
#174 = EDGE_LOOP ( 'NONE', ( #129, #47 ) ) ;
#175 = SHAPE_DEFINITION_REPRESENTATION ( #131, #33 ) ;
ENDSEC;
END-ISO-10303-21;
