ISO-10303-21;
HEADER;
FILE_DESCRIPTION (( 'STEP AP203' ),
    '1' );
FILE_NAME ('Web Model 68381.STEP',
    '2017-01-31T19:52:29',
    ( '' ),
    ( '' ),
    'SwSTEP 2.0',
    'SolidWorks 2016',
    '' );
FILE_SCHEMA (( 'CONFIG_CONTROL_DESIGN' ));
ENDSEC;

DATA;
#1 = LOCAL_TIME ( 14, 52, 29.00000000000000000, #124 ) ;
#2 = EDGE_CURVE ( 'NONE', #156, #67, #19, .T. ) ;
#3 = ADVANCED_FACE ( 'NONE', ( #81 ), #107, .T. ) ;
#4 = PERSON_AND_ORGANIZATION_ROLE ( 'classification_officer' ) ;
#5 = CC_DESIGN_PERSON_AND_ORGANIZATION_ASSIGNMENT ( #89, #42, ( #76 ) ) ;
#6 = CARTESIAN_POINT ( 'NONE',  ( 6.249999999999998200, 7.654042494670955600E-016, 0.0000000000000000000 ) ) ;
#7 = COORDINATED_UNIVERSAL_TIME_OFFSET ( 5, 0, .BEHIND. ) ;
#8 = PERSON_AND_ORGANIZATION ( #47, #85 ) ;
#9 = EDGE_CURVE ( 'NONE', #156, #101, #61, .T. ) ;
#10 = CARTESIAN_POINT ( 'NONE',  ( -6.249999999999998200, 0.0000000000000000000, 3.000000000000000000 ) ) ;
#11 = SHAPE_DEFINITION_REPRESENTATION ( #143, #103 ) ;
#12 = LOCAL_TIME ( 14, 52, 29.00000000000000000, #7 ) ;
#13 = CLOSED_SHELL ( 'NONE', ( #142, #3, #158, #119 ) ) ;
#14 = EDGE_CURVE ( 'NONE', #67, #39, #15, .T. ) ;
#15 = CIRCLE ( 'NONE', #91, 6.249999999999998200 ) ;
#16 = AXIS2_PLACEMENT_3D ( 'NONE', #92, #153, #164 ) ;
#17 = APPROVAL_ROLE ( '' ) ;
#18 = DIRECTION ( 'NONE',  ( 0.0000000000000000000, 0.0000000000000000000, 1.000000000000000000 ) ) ;
#19 = LINE ( 'NONE', #45, #169 ) ;
#20 = DIRECTION ( 'NONE',  ( 0.0000000000000000000, 0.0000000000000000000, 1.000000000000000000 ) ) ;
#21 = DIRECTION ( 'NONE',  ( -1.000000000000000000, 0.0000000000000000000, 0.0000000000000000000 ) ) ;
#22 = ORIENTED_EDGE ( 'NONE', *, *, #9, .T. ) ;
#23 = PRODUCT_DEFINITION ( 'UNKNOWN', '', #34, #57 ) ;
#24 = DIRECTION ( 'NONE',  ( 0.0000000000000000000, 0.0000000000000000000, 1.000000000000000000 ) ) ;
#25 = APPROVAL_DATE_TIME ( #64, #49 ) ;
#26 = CALENDAR_DATE ( 2017, 31, 1 ) ;
#27 = APPROVAL_ROLE ( '' ) ;
#28 = APPLICATION_PROTOCOL_DEFINITION ( 'international standard', 'config_control_design', 1994, #51 ) ;
#29 = APPROVAL_STATUS ( 'not_yet_approved' ) ;
#30 = APPROVAL_DATE_TIME ( #44, #32 ) ;
#31 = ORIENTED_EDGE ( 'NONE', *, *, #2, .F. ) ;
#32 = APPROVAL ( #73, 'UNSPECIFIED' ) ;
#33 = ORIENTED_EDGE ( 'NONE', *, *, #170, .T. ) ;
#34 = PRODUCT_DEFINITION_FORMATION_WITH_SPECIFIED_SOURCE ( 'ANY', '', #76, .NOT_KNOWN. ) ;
#35 = PLANE ( 'NONE',  #106 ) ;
#36 = PRODUCT_RELATED_PRODUCT_CATEGORY ( 'detail', '', ( #76 ) ) ;
#37 = FACE_OUTER_BOUND ( 'NONE', #167, .T. ) ;
#38 =( NAMED_UNIT ( * ) PLANE_ANGLE_UNIT ( ) SI_UNIT ( $, .RADIAN. ) );
#39 = VERTEX_POINT ( 'NONE', #88 ) ;
#40 = ORIENTED_EDGE ( 'NONE', *, *, #14, .T. ) ;
#41 = CC_DESIGN_APPROVAL ( #32, ( #23 ) ) ;
#42 = PERSON_AND_ORGANIZATION_ROLE ( 'design_owner' ) ;
#43 = LOCAL_TIME ( 14, 52, 29.00000000000000000, #120 ) ;
#44 = DATE_AND_TIME ( #150, #12 ) ;
#45 = CARTESIAN_POINT ( 'NONE',  ( 6.249999999999998200, 7.654042494670955600E-016, 3.000000000000000000 ) ) ;
#46 = ORIENTED_EDGE ( 'NONE', *, *, #9, .F. ) ;
#47 = PERSON ( 'UNSPECIFIED', 'UNSPECIFIED', 'UNSPECIFIED', ('UNSPECIFIED'), ('UNSPECIFIED'), ('UNSPECIFIED') ) ;
#48 = CC_DESIGN_PERSON_AND_ORGANIZATION_ASSIGNMENT ( #75, #110, ( #23 ) ) ;
#49 = APPROVAL ( #125, 'UNSPECIFIED' ) ;
#50 = UNCERTAINTY_MEASURE_WITH_UNIT (LENGTH_MEASURE( 1.000000000000000100E-005 ), #94, 'distance_accuracy_value', 'NONE');
#51 = APPLICATION_CONTEXT ( 'configuration controlled 3d designs of mechanical parts and assemblies' ) ;
#52 = DATE_AND_TIME ( #95, #149 ) ;
#53 = SECURITY_CLASSIFICATION_LEVEL ( 'unclassified' ) ;
#54 = FACE_OUTER_BOUND ( 'NONE', #115, .T. ) ;
#55 = ORIENTED_EDGE ( 'NONE', *, *, #127, .F. ) ;
#56 = CC_DESIGN_APPROVAL ( #49, ( #34 ) ) ;
#57 = DESIGN_CONTEXT ( 'detailed design', #71, 'design' ) ;
#58 = CYLINDRICAL_SURFACE ( 'NONE', #97, 6.249999999999998200 ) ;
#59 = CARTESIAN_POINT ( 'NONE',  ( 0.0000000000000000000, 0.0000000000000000000, 3.000000000000000000 ) ) ;
#60 = CARTESIAN_POINT ( 'NONE',  ( 0.0000000000000000000, 0.0000000000000000000, 0.0000000000000000000 ) ) ;
#61 = CIRCLE ( 'NONE', #87, 6.249999999999998200 ) ;
#62 = DIRECTION ( 'NONE',  ( -0.0000000000000000000, -0.0000000000000000000, -1.000000000000000000 ) ) ;
#63 = CARTESIAN_POINT ( 'NONE',  ( 0.0000000000000000000, 0.0000000000000000000, 3.000000000000000000 ) ) ;
#64 = DATE_AND_TIME ( #161, #43 ) ;
#65 = CIRCLE ( 'NONE', #16, 6.249999999999998200 ) ;
#66 = ORIENTED_EDGE ( 'NONE', *, *, #170, .F. ) ;
#67 = VERTEX_POINT ( 'NONE', #6 ) ;
#68 = APPROVAL_DATE_TIME ( #104, #121 ) ;
#69 = ORIENTED_EDGE ( 'NONE', *, *, #14, .F. ) ;
#70 = CC_DESIGN_DATE_AND_TIME_ASSIGNMENT ( #160, #74, ( #23 ) ) ;
#71 = APPLICATION_CONTEXT ( 'configuration controlled 3d designs of mechanical parts and assemblies' ) ;
#72 = CC_DESIGN_PERSON_AND_ORGANIZATION_ASSIGNMENT ( #129, #145, ( #34 ) ) ;
#73 = APPROVAL_STATUS ( 'not_yet_approved' ) ;
#74 = DATE_TIME_ROLE ( 'creation_date' ) ;
#75 = PERSON_AND_ORGANIZATION ( #47, #85 ) ;
#76 = PRODUCT ( 'Web Model 68381', 'Web Model 68381', '', ( #157 ) ) ;
#77 = CARTESIAN_POINT ( 'NONE',  ( 0.0000000000000000000, 0.0000000000000000000, 3.000000000000000000 ) ) ;
#78 = ORIENTED_EDGE ( 'NONE', *, *, #127, .T. ) ;
#79 = PLANE ( 'NONE',  #123 ) ;
#80 = AXIS2_PLACEMENT_3D ( 'NONE', #77, #112, #21 ) ;
#81 = FACE_OUTER_BOUND ( 'NONE', #116, .T. ) ;
#82 = CC_DESIGN_PERSON_AND_ORGANIZATION_ASSIGNMENT ( #8, #84, ( #34 ) ) ;
#83 = LINE ( 'NONE', #10, #146 ) ;
#84 = PERSON_AND_ORGANIZATION_ROLE ( 'design_supplier' ) ;
#85 = ORGANIZATION ( 'UNSPECIFIED', 'UNSPECIFIED', '' ) ;
#86 = DIRECTION ( 'NONE',  ( 1.000000000000000000, 0.0000000000000000000, 0.0000000000000000000 ) ) ;
#87 = AXIS2_PLACEMENT_3D ( 'NONE', #59, #163, #162 ) ;
#88 = CARTESIAN_POINT ( 'NONE',  ( -6.249999999999998200, 0.0000000000000000000, 0.0000000000000000000 ) ) ;
#89 = PERSON_AND_ORGANIZATION ( #47, #85 ) ;
#90 = APPROVAL_PERSON_ORGANIZATION ( #165, #121, #27 ) ;
#91 = AXIS2_PLACEMENT_3D ( 'NONE', #60, #98, #99 ) ;
#92 = CARTESIAN_POINT ( 'NONE',  ( 0.0000000000000000000, 0.0000000000000000000, 3.000000000000000000 ) ) ;
#93 = DIRECTION ( 'NONE',  ( 0.0000000000000000000, 0.0000000000000000000, 1.000000000000000000 ) ) ;
#94 =( LENGTH_UNIT ( ) NAMED_UNIT ( * ) SI_UNIT ( .MILLI., .METRE. ) );
#95 = CALENDAR_DATE ( 2017, 31, 1 ) ;
#96 = LOCAL_TIME ( 14, 52, 29.00000000000000000, #173 ) ;
#97 = AXIS2_PLACEMENT_3D ( 'NONE', #102, #62, #134 ) ;
#98 = DIRECTION ( 'NONE',  ( 0.0000000000000000000, 0.0000000000000000000, 1.000000000000000000 ) ) ;
#99 = DIRECTION ( 'NONE',  ( 1.000000000000000000, 0.0000000000000000000, 0.0000000000000000000 ) ) ;
#100 = CC_DESIGN_PERSON_AND_ORGANIZATION_ASSIGNMENT ( #138, #4, ( #155 ) ) ;
#101 = VERTEX_POINT ( 'NONE', #114 ) ;
#102 = CARTESIAN_POINT ( 'NONE',  ( 0.0000000000000000000, 0.0000000000000000000, 3.000000000000000000 ) ) ;
#103 = ADVANCED_BREP_SHAPE_REPRESENTATION ( 'Web Model 68381', ( #130, #140 ), #128 ) ;
#104 = DATE_AND_TIME ( #26, #1 ) ;
#105 = DIRECTION ( 'NONE',  ( -0.0000000000000000000, -0.0000000000000000000, -1.000000000000000000 ) ) ;
#106 = AXIS2_PLACEMENT_3D ( 'NONE', #172, #20, #137 ) ;
#107 = CYLINDRICAL_SURFACE ( 'NONE', #80, 6.249999999999998200 ) ;
#108 = AXIS2_PLACEMENT_3D ( 'NONE', #175, #24, #136 ) ;
#109 = DATE_TIME_ROLE ( 'classification_date' ) ;
#110 = PERSON_AND_ORGANIZATION_ROLE ( 'creator' ) ;
#111 = CC_DESIGN_DATE_AND_TIME_ASSIGNMENT ( #52, #109, ( #155 ) ) ;
#112 = DIRECTION ( 'NONE',  ( -0.0000000000000000000, -0.0000000000000000000, -1.000000000000000000 ) ) ;
#113 = PERSON_AND_ORGANIZATION ( #47, #85 ) ;
#114 = CARTESIAN_POINT ( 'NONE',  ( -6.249999999999998200, 0.0000000000000000000, 3.000000000000000000 ) ) ;
#115 = EDGE_LOOP ( 'NONE', ( #46, #135, #40, #55 ) ) ;
#116 = EDGE_LOOP ( 'NONE', ( #31, #66, #78, #151 ) ) ;
#117 = CARTESIAN_POINT ( 'NONE',  ( 6.249999999999998200, 7.654042494670955600E-016, 3.000000000000000000 ) ) ;
#118 =( NAMED_UNIT ( * ) SI_UNIT ( $, .STERADIAN. ) SOLID_ANGLE_UNIT ( ) );
#119 = ADVANCED_FACE ( 'NONE', ( #37 ), #35, .F. ) ;
#120 = COORDINATED_UNIVERSAL_TIME_OFFSET ( 5, 0, .BEHIND. ) ;
#121 = APPROVAL ( #29, 'UNSPECIFIED' ) ;
#122 = CALENDAR_DATE ( 2017, 31, 1 ) ;
#123 = AXIS2_PLACEMENT_3D ( 'NONE', #63, #93, #152 ) ;
#124 = COORDINATED_UNIVERSAL_TIME_OFFSET ( 5, 0, .BEHIND. ) ;
#125 = APPROVAL_STATUS ( 'not_yet_approved' ) ;
#126 = APPLICATION_PROTOCOL_DEFINITION ( 'international standard', 'config_control_design', 1994, #71 ) ;
#127 = EDGE_CURVE ( 'NONE', #101, #39, #83, .T. ) ;
#128 =( GEOMETRIC_REPRESENTATION_CONTEXT ( 3 ) GLOBAL_UNCERTAINTY_ASSIGNED_CONTEXT ( ( #50 ) ) GLOBAL_UNIT_ASSIGNED_CONTEXT ( ( #94, #38, #118 ) ) REPRESENTATION_CONTEXT ( 'NONE', 'WORKASPACE' ) );
#129 = PERSON_AND_ORGANIZATION ( #47, #85 ) ;
#130 = MANIFOLD_SOLID_BREP ( 'Extrude1', #13 ) ;
#131 = DIRECTION ( 'NONE',  ( -0.0000000000000000000, -0.0000000000000000000, -1.000000000000000000 ) ) ;
#132 = APPROVAL_PERSON_ORGANIZATION ( #113, #32, #17 ) ;
#133 = FACE_OUTER_BOUND ( 'NONE', #174, .T. ) ;
#134 = DIRECTION ( 'NONE',  ( -1.000000000000000000, 0.0000000000000000000, 0.0000000000000000000 ) ) ;
#135 = ORIENTED_EDGE ( 'NONE', *, *, #2, .T. ) ;
#136 = DIRECTION ( 'NONE',  ( 1.000000000000000000, 0.0000000000000000000, 0.0000000000000000000 ) ) ;
#137 = DIRECTION ( 'NONE',  ( 1.000000000000000000, 0.0000000000000000000, -0.0000000000000000000 ) ) ;
#138 = PERSON_AND_ORGANIZATION ( #47, #85 ) ;
#139 = ORIENTED_EDGE ( 'NONE', *, *, #148, .F. ) ;
#140 = AXIS2_PLACEMENT_3D ( 'NONE', #159, #18, #86 ) ;
#141 = CC_DESIGN_SECURITY_CLASSIFICATION ( #155, ( #34 ) ) ;
#142 = ADVANCED_FACE ( 'NONE', ( #54 ), #58, .T. ) ;
#143 = PRODUCT_DEFINITION_SHAPE ( 'NONE', 'NONE',  #23 ) ;
#144 = PERSON_AND_ORGANIZATION ( #47, #85 ) ;
#145 = PERSON_AND_ORGANIZATION_ROLE ( 'creator' ) ;
#146 = VECTOR ( 'NONE', #105, 1000.000000000000000 ) ;
#147 = CC_DESIGN_APPROVAL ( #121, ( #155 ) ) ;
#148 = EDGE_CURVE ( 'NONE', #39, #67, #166, .T. ) ;
#149 = LOCAL_TIME ( 14, 52, 29.00000000000000000, #154 ) ;
#150 = CALENDAR_DATE ( 2017, 31, 1 ) ;
#151 = ORIENTED_EDGE ( 'NONE', *, *, #148, .T. ) ;
#152 = DIRECTION ( 'NONE',  ( 1.000000000000000000, 0.0000000000000000000, -0.0000000000000000000 ) ) ;
#153 = DIRECTION ( 'NONE',  ( 0.0000000000000000000, 0.0000000000000000000, 1.000000000000000000 ) ) ;
#154 = COORDINATED_UNIVERSAL_TIME_OFFSET ( 5, 0, .BEHIND. ) ;
#155 = SECURITY_CLASSIFICATION ( '', '', #53 ) ;
#156 = VERTEX_POINT ( 'NONE', #117 ) ;
#157 = MECHANICAL_CONTEXT ( 'NONE', #51, 'mechanical' ) ;
#158 = ADVANCED_FACE ( 'NONE', ( #133 ), #79, .T. ) ;
#159 = CARTESIAN_POINT ( 'NONE',  ( 0.0000000000000000000, 0.0000000000000000000, 0.0000000000000000000 ) ) ;
#160 = DATE_AND_TIME ( #122, #96 ) ;
#161 = CALENDAR_DATE ( 2017, 31, 1 ) ;
#162 = DIRECTION ( 'NONE',  ( 1.000000000000000000, 0.0000000000000000000, 0.0000000000000000000 ) ) ;
#163 = DIRECTION ( 'NONE',  ( 0.0000000000000000000, 0.0000000000000000000, 1.000000000000000000 ) ) ;
#164 = DIRECTION ( 'NONE',  ( 1.000000000000000000, 0.0000000000000000000, 0.0000000000000000000 ) ) ;
#165 = PERSON_AND_ORGANIZATION ( #47, #85 ) ;
#166 = CIRCLE ( 'NONE', #108, 6.249999999999998200 ) ;
#167 = EDGE_LOOP ( 'NONE', ( #139, #69 ) ) ;
#168 = APPROVAL_ROLE ( '' ) ;
#169 = VECTOR ( 'NONE', #131, 1000.000000000000000 ) ;
#170 = EDGE_CURVE ( 'NONE', #101, #156, #65, .T. ) ;
#171 = APPROVAL_PERSON_ORGANIZATION ( #144, #49, #168 ) ;
#172 = CARTESIAN_POINT ( 'NONE',  ( 0.0000000000000000000, 0.0000000000000000000, 0.0000000000000000000 ) ) ;
#173 = COORDINATED_UNIVERSAL_TIME_OFFSET ( 5, 0, .BEHIND. ) ;
#174 = EDGE_LOOP ( 'NONE', ( #33, #22 ) ) ;
#175 = CARTESIAN_POINT ( 'NONE',  ( 0.0000000000000000000, 0.0000000000000000000, 0.0000000000000000000 ) ) ;
ENDSEC;
END-ISO-10303-21;
