ISO-10303-21;
HEADER;
FILE_DESCRIPTION (( 'STEP AP203' ),
    '1' );
FILE_NAME ('Web Model 65875.STEP',
    '2017-01-31T19:29:49',
    ( '' ),
    ( '' ),
    'SwSTEP 2.0',
    'SolidWorks 2016',
    '' );
FILE_SCHEMA (( 'CONFIG_CONTROL_DESIGN' ));
ENDSEC;

DATA;
#1 = LOCAL_TIME ( 14, 29, 49.00000000000000000, #164 ) ;
#2 = FACE_OUTER_BOUND ( 'NONE', #135, .T. ) ;
#3 = DIRECTION ( 'NONE',  ( -0.0000000000000000000, -0.0000000000000000000, -1.000000000000000000 ) ) ;
#4 = AXIS2_PLACEMENT_3D ( 'NONE', #168, #18, #46 ) ;
#5 = DIRECTION ( 'NONE',  ( 1.000000000000000000, 0.0000000000000000000, 0.0000000000000000000 ) ) ;
#6 = DIRECTION ( 'NONE',  ( 1.000000000000000000, 0.0000000000000000000, 0.0000000000000000000 ) ) ;
#7 = VERTEX_POINT ( 'NONE', #115 ) ;
#8 = CYLINDRICAL_SURFACE ( 'NONE', #151, 12.50000000000000000 ) ;
#9 = PERSON_AND_ORGANIZATION_ROLE ( 'design_owner' ) ;
#10 = PERSON_AND_ORGANIZATION_ROLE ( 'creator' ) ;
#11 = PERSON_AND_ORGANIZATION ( #62, #44 ) ;
#12 = SHAPE_DEFINITION_REPRESENTATION ( #43, #80 ) ;
#13 = CC_DESIGN_PERSON_AND_ORGANIZATION_ASSIGNMENT ( #139, #9, ( #50 ) ) ;
#14 = DESIGN_CONTEXT ( 'detailed design', #77, 'design' ) ;
#15 = DIRECTION ( 'NONE',  ( -0.0000000000000000000, -0.0000000000000000000, -1.000000000000000000 ) ) ;
#16 = PLANE ( 'NONE',  #4 ) ;
#17 = AXIS2_PLACEMENT_3D ( 'NONE', #129, #21, #156 ) ;
#18 = DIRECTION ( 'NONE',  ( 0.0000000000000000000, 0.0000000000000000000, 1.000000000000000000 ) ) ;
#19 = DIRECTION ( 'NONE',  ( -0.0000000000000000000, -0.0000000000000000000, -1.000000000000000000 ) ) ;
#20 = PERSON_AND_ORGANIZATION ( #62, #44 ) ;
#21 = DIRECTION ( 'NONE',  ( 0.0000000000000000000, 0.0000000000000000000, 1.000000000000000000 ) ) ;
#22 = EDGE_LOOP ( 'NONE', ( #61, #41 ) ) ;
#23 = APPLICATION_PROTOCOL_DEFINITION ( 'international standard', 'config_control_design', 1994, #77 ) ;
#24 = CC_DESIGN_APPROVAL ( #48, ( #96 ) ) ;
#25 = APPLICATION_CONTEXT ( 'configuration controlled 3d designs of mechanical parts and assemblies' ) ;
#26 = ADVANCED_FACE ( 'NONE', ( #2 ), #8, .T. ) ;
#27 = CALENDAR_DATE ( 2017, 31, 1 ) ;
#28 = FACE_OUTER_BOUND ( 'NONE', #165, .T. ) ;
#29 = MANIFOLD_SOLID_BREP ( 'Extrude1', #123 ) ;
#30 = CC_DESIGN_PERSON_AND_ORGANIZATION_ASSIGNMENT ( #11, #105, ( #104 ) ) ;
#31 = ADVANCED_FACE ( 'NONE', ( #130 ), #95, .T. ) ;
#32 = PERSON_AND_ORGANIZATION ( #62, #44 ) ;
#33 = VECTOR ( 'NONE', #19, 1000.000000000000000 ) ;
#34 = CARTESIAN_POINT ( 'NONE',  ( -12.50000000000000000, 0.0000000000000000000, 3.000000000000000000 ) ) ;
#35 = APPROVAL ( #162, 'UNSPECIFIED' ) ;
#36 = CIRCLE ( 'NONE', #141, 12.50000000000000000 ) ;
#37 = AXIS2_PLACEMENT_3D ( 'NONE', #111, #125, #5 ) ;
#38 = APPROVAL_PERSON_ORGANIZATION ( #68, #108, #89 ) ;
#39 = MECHANICAL_CONTEXT ( 'NONE', #25, 'mechanical' ) ;
#40 = LOCAL_TIME ( 14, 29, 49.00000000000000000, #81 ) ;
#41 = ORIENTED_EDGE ( 'NONE', *, *, #112, .T. ) ;
#42 = CC_DESIGN_APPROVAL ( #35, ( #104 ) ) ;
#43 = PRODUCT_DEFINITION_SHAPE ( 'NONE', 'NONE',  #96 ) ;
#44 = ORGANIZATION ( 'UNSPECIFIED', 'UNSPECIFIED', '' ) ;
#45 = AXIS2_PLACEMENT_3D ( 'NONE', #140, #116, #143 ) ;
#46 = DIRECTION ( 'NONE',  ( 1.000000000000000000, 0.0000000000000000000, -0.0000000000000000000 ) ) ;
#47 = CARTESIAN_POINT ( 'NONE',  ( 12.50000000000000000, 1.530808498934191500E-015, 0.0000000000000000000 ) ) ;
#48 = APPROVAL ( #88, 'UNSPECIFIED' ) ;
#49 = APPROVAL_DATE_TIME ( #92, #48 ) ;
#50 = PRODUCT ( 'Web Model 65875', 'Web Model 65875', '', ( #39 ) ) ;
#51 = DIRECTION ( 'NONE',  ( 0.0000000000000000000, 0.0000000000000000000, 1.000000000000000000 ) ) ;
#52 = ORIENTED_EDGE ( 'NONE', *, *, #85, .F. ) ;
#53 = CC_DESIGN_SECURITY_CLASSIFICATION ( #104, ( #158 ) ) ;
#54 =( NAMED_UNIT ( * ) SI_UNIT ( $, .STERADIAN. ) SOLID_ANGLE_UNIT ( ) );
#55 = CIRCLE ( 'NONE', #175, 12.50000000000000000 ) ;
#56 = LINE ( 'NONE', #84, #131 ) ;
#57 = CALENDAR_DATE ( 2017, 31, 1 ) ;
#58 = CARTESIAN_POINT ( 'NONE',  ( 0.0000000000000000000, 0.0000000000000000000, 3.000000000000000000 ) ) ;
#59 = ORIENTED_EDGE ( 'NONE', *, *, #67, .F. ) ;
#60 = DIRECTION ( 'NONE',  ( 0.0000000000000000000, 0.0000000000000000000, 1.000000000000000000 ) ) ;
#61 = ORIENTED_EDGE ( 'NONE', *, *, #85, .T. ) ;
#62 = PERSON ( 'UNSPECIFIED', 'UNSPECIFIED', 'UNSPECIFIED', ('UNSPECIFIED'), ('UNSPECIFIED'), ('UNSPECIFIED') ) ;
#63 = DATE_AND_TIME ( #27, #137 ) ;
#64 = ORIENTED_EDGE ( 'NONE', *, *, #102, .T. ) ;
#65 = DATE_TIME_ROLE ( 'classification_date' ) ;
#66 = LOCAL_TIME ( 14, 29, 49.00000000000000000, #124 ) ;
#67 = EDGE_CURVE ( 'NONE', #161, #107, #36, .T. ) ;
#68 = PERSON_AND_ORGANIZATION ( #62, #44 ) ;
#69 = ORIENTED_EDGE ( 'NONE', *, *, #75, .T. ) ;
#70 = DIRECTION ( 'NONE',  ( -1.000000000000000000, 0.0000000000000000000, 0.0000000000000000000 ) ) ;
#71 = DATE_AND_TIME ( #167, #170 ) ;
#72 = CARTESIAN_POINT ( 'NONE',  ( -12.50000000000000000, 0.0000000000000000000, 0.0000000000000000000 ) ) ;
#73 = CARTESIAN_POINT ( 'NONE',  ( 0.0000000000000000000, 0.0000000000000000000, 3.000000000000000000 ) ) ;
#74 = CYLINDRICAL_SURFACE ( 'NONE', #45, 12.50000000000000000 ) ;
#75 = EDGE_CURVE ( 'NONE', #7, #107, #56, .T. ) ;
#76 = PERSON_AND_ORGANIZATION ( #62, #44 ) ;
#77 = APPLICATION_CONTEXT ( 'configuration controlled 3d designs of mechanical parts and assemblies' ) ;
#78 =( GEOMETRIC_REPRESENTATION_CONTEXT ( 3 ) GLOBAL_UNCERTAINTY_ASSIGNED_CONTEXT ( ( #109 ) ) GLOBAL_UNIT_ASSIGNED_CONTEXT ( ( #153, #106, #54 ) ) REPRESENTATION_CONTEXT ( 'NONE', 'WORKASPACE' ) );
#79 = APPLICATION_PROTOCOL_DEFINITION ( 'international standard', 'config_control_design', 1994, #25 ) ;
#80 = ADVANCED_BREP_SHAPE_REPRESENTATION ( 'Web Model 65875', ( #29, #149 ), #78 ) ;
#81 = COORDINATED_UNIVERSAL_TIME_OFFSET ( 5, 0, .BEHIND. ) ;
#82 = APPROVAL_DATE_TIME ( #172, #108 ) ;
#83 = FACE_OUTER_BOUND ( 'NONE', #90, .T. ) ;
#84 = CARTESIAN_POINT ( 'NONE',  ( 12.50000000000000000, 1.530808498934191500E-015, 3.000000000000000000 ) ) ;
#85 = EDGE_CURVE ( 'NONE', #114, #7, #55, .T. ) ;
#86 = CIRCLE ( 'NONE', #17, 12.50000000000000000 ) ;
#87 = ORIENTED_EDGE ( 'NONE', *, *, #132, .F. ) ;
#88 = APPROVAL_STATUS ( 'not_yet_approved' ) ;
#89 = APPROVAL_ROLE ( '' ) ;
#90 = EDGE_LOOP ( 'NONE', ( #59, #87 ) ) ;
#91 = ADVANCED_FACE ( 'NONE', ( #28 ), #74, .T. ) ;
#92 = DATE_AND_TIME ( #171, #66 ) ;
#93 = ORIENTED_EDGE ( 'NONE', *, *, #67, .T. ) ;
#94 = DATE_AND_TIME ( #100, #40 ) ;
#95 = PLANE ( 'NONE',  #159 ) ;
#96 = PRODUCT_DEFINITION ( 'UNKNOWN', '', #158, #14 ) ;
#97 = APPROVAL_PERSON_ORGANIZATION ( #20, #35, #146 ) ;
#98 = CARTESIAN_POINT ( 'NONE',  ( 0.0000000000000000000, 0.0000000000000000000, 3.000000000000000000 ) ) ;
#99 = DIRECTION ( 'NONE',  ( 0.0000000000000000000, 0.0000000000000000000, 1.000000000000000000 ) ) ;
#100 = CALENDAR_DATE ( 2017, 31, 1 ) ;
#101 = PERSON_AND_ORGANIZATION ( #62, #44 ) ;
#102 = EDGE_CURVE ( 'NONE', #114, #161, #144, .T. ) ;
#103 = DATE_TIME_ROLE ( 'creation_date' ) ;
#104 = SECURITY_CLASSIFICATION ( '', '', #173 ) ;
#105 = PERSON_AND_ORGANIZATION_ROLE ( 'classification_officer' ) ;
#106 =( NAMED_UNIT ( * ) PLANE_ANGLE_UNIT ( ) SI_UNIT ( $, .RADIAN. ) );
#107 = VERTEX_POINT ( 'NONE', #47 ) ;
#108 = APPROVAL ( #134, 'UNSPECIFIED' ) ;
#109 = UNCERTAINTY_MEASURE_WITH_UNIT (LENGTH_MEASURE( 1.000000000000000100E-005 ), #153, 'distance_accuracy_value', 'NONE');
#110 = ORIENTED_EDGE ( 'NONE', *, *, #75, .F. ) ;
#111 = CARTESIAN_POINT ( 'NONE',  ( 0.0000000000000000000, 0.0000000000000000000, 0.0000000000000000000 ) ) ;
#112 = EDGE_CURVE ( 'NONE', #7, #114, #86, .T. ) ;
#113 = DIRECTION ( 'NONE',  ( 1.000000000000000000, 0.0000000000000000000, -0.0000000000000000000 ) ) ;
#114 = VERTEX_POINT ( 'NONE', #128 ) ;
#115 = CARTESIAN_POINT ( 'NONE',  ( 12.50000000000000000, 1.530808498934191500E-015, 3.000000000000000000 ) ) ;
#116 = DIRECTION ( 'NONE',  ( -0.0000000000000000000, -0.0000000000000000000, -1.000000000000000000 ) ) ;
#117 = ORIENTED_EDGE ( 'NONE', *, *, #102, .F. ) ;
#118 = CIRCLE ( 'NONE', #37, 12.50000000000000000 ) ;
#119 = DIRECTION ( 'NONE',  ( 1.000000000000000000, 0.0000000000000000000, 0.0000000000000000000 ) ) ;
#120 = PERSON_AND_ORGANIZATION_ROLE ( 'creator' ) ;
#121 = APPROVAL_ROLE ( '' ) ;
#122 = ORIENTED_EDGE ( 'NONE', *, *, #112, .F. ) ;
#123 = CLOSED_SHELL ( 'NONE', ( #91, #26, #31, #138 ) ) ;
#124 = COORDINATED_UNIVERSAL_TIME_OFFSET ( 5, 0, .BEHIND. ) ;
#125 = DIRECTION ( 'NONE',  ( 0.0000000000000000000, 0.0000000000000000000, 1.000000000000000000 ) ) ;
#126 = CC_DESIGN_APPROVAL ( #108, ( #158 ) ) ;
#127 = DIRECTION ( 'NONE',  ( 0.0000000000000000000, 0.0000000000000000000, 1.000000000000000000 ) ) ;
#128 = CARTESIAN_POINT ( 'NONE',  ( -12.50000000000000000, 0.0000000000000000000, 3.000000000000000000 ) ) ;
#129 = CARTESIAN_POINT ( 'NONE',  ( 0.0000000000000000000, 0.0000000000000000000, 3.000000000000000000 ) ) ;
#130 = FACE_OUTER_BOUND ( 'NONE', #22, .T. ) ;
#131 = VECTOR ( 'NONE', #15, 1000.000000000000000 ) ;
#132 = EDGE_CURVE ( 'NONE', #107, #161, #118, .T. ) ;
#133 = CARTESIAN_POINT ( 'NONE',  ( 0.0000000000000000000, 0.0000000000000000000, 0.0000000000000000000 ) ) ;
#134 = APPROVAL_STATUS ( 'not_yet_approved' ) ;
#135 = EDGE_LOOP ( 'NONE', ( #110, #52, #64, #93 ) ) ;
#136 = CC_DESIGN_DATE_AND_TIME_ASSIGNMENT ( #94, #103, ( #96 ) ) ;
#137 = LOCAL_TIME ( 14, 29, 49.00000000000000000, #160 ) ;
#138 = ADVANCED_FACE ( 'NONE', ( #83 ), #16, .F. ) ;
#139 = PERSON_AND_ORGANIZATION ( #62, #44 ) ;
#140 = CARTESIAN_POINT ( 'NONE',  ( 0.0000000000000000000, 0.0000000000000000000, 3.000000000000000000 ) ) ;
#141 = AXIS2_PLACEMENT_3D ( 'NONE', #169, #60, #6 ) ;
#142 = DIRECTION ( 'NONE',  ( 1.000000000000000000, 0.0000000000000000000, 0.0000000000000000000 ) ) ;
#143 = DIRECTION ( 'NONE',  ( -1.000000000000000000, 0.0000000000000000000, 0.0000000000000000000 ) ) ;
#144 = LINE ( 'NONE', #34, #33 ) ;
#145 = CC_DESIGN_PERSON_AND_ORGANIZATION_ASSIGNMENT ( #76, #120, ( #158 ) ) ;
#146 = APPROVAL_ROLE ( '' ) ;
#147 = COORDINATED_UNIVERSAL_TIME_OFFSET ( 5, 0, .BEHIND. ) ;
#148 = PERSON_AND_ORGANIZATION_ROLE ( 'design_supplier' ) ;
#149 = AXIS2_PLACEMENT_3D ( 'NONE', #133, #51, #119 ) ;
#150 = PERSON_AND_ORGANIZATION ( #62, #44 ) ;
#151 = AXIS2_PLACEMENT_3D ( 'NONE', #58, #3, #70 ) ;
#152 = APPROVAL_PERSON_ORGANIZATION ( #101, #48, #121 ) ;
#153 =( LENGTH_UNIT ( ) NAMED_UNIT ( * ) SI_UNIT ( .MILLI., .METRE. ) );
#154 = ORIENTED_EDGE ( 'NONE', *, *, #132, .T. ) ;
#155 = CC_DESIGN_DATE_AND_TIME_ASSIGNMENT ( #71, #65, ( #104 ) ) ;
#156 = DIRECTION ( 'NONE',  ( 1.000000000000000000, 0.0000000000000000000, 0.0000000000000000000 ) ) ;
#157 = APPROVAL_DATE_TIME ( #63, #35 ) ;
#158 = PRODUCT_DEFINITION_FORMATION_WITH_SPECIFIED_SOURCE ( 'ANY', '', #50, .NOT_KNOWN. ) ;
#159 = AXIS2_PLACEMENT_3D ( 'NONE', #98, #99, #113 ) ;
#160 = COORDINATED_UNIVERSAL_TIME_OFFSET ( 5, 0, .BEHIND. ) ;
#161 = VERTEX_POINT ( 'NONE', #72 ) ;
#162 = APPROVAL_STATUS ( 'not_yet_approved' ) ;
#163 = CC_DESIGN_PERSON_AND_ORGANIZATION_ASSIGNMENT ( #32, #148, ( #158 ) ) ;
#164 = COORDINATED_UNIVERSAL_TIME_OFFSET ( 5, 0, .BEHIND. ) ;
#165 = EDGE_LOOP ( 'NONE', ( #122, #69, #154, #117 ) ) ;
#166 = PRODUCT_RELATED_PRODUCT_CATEGORY ( 'detail', '', ( #50 ) ) ;
#167 = CALENDAR_DATE ( 2017, 31, 1 ) ;
#168 = CARTESIAN_POINT ( 'NONE',  ( 0.0000000000000000000, 0.0000000000000000000, 0.0000000000000000000 ) ) ;
#169 = CARTESIAN_POINT ( 'NONE',  ( 0.0000000000000000000, 0.0000000000000000000, 0.0000000000000000000 ) ) ;
#170 = LOCAL_TIME ( 14, 29, 49.00000000000000000, #147 ) ;
#171 = CALENDAR_DATE ( 2017, 31, 1 ) ;
#172 = DATE_AND_TIME ( #57, #1 ) ;
#173 = SECURITY_CLASSIFICATION_LEVEL ( 'unclassified' ) ;
#174 = CC_DESIGN_PERSON_AND_ORGANIZATION_ASSIGNMENT ( #150, #10, ( #96 ) ) ;
#175 = AXIS2_PLACEMENT_3D ( 'NONE', #73, #127, #142 ) ;
ENDSEC;
END-ISO-10303-21;
