ISO-10303-21;
HEADER;
FILE_DESCRIPTION (( 'STEP AP203' ),
    '1' );
FILE_NAME ('TTN188096-E0W.STEP',
    '2019-12-16T20:25:24',
    ( '' ),
    ( '' ),
    'SwSTEP 2.0',
    'SolidWorks 2018',
    '' );
FILE_SCHEMA (( 'CONFIG_CONTROL_DESIGN' ));
ENDSEC;

DATA;
#1 = PRODUCT ( 'TTN188096-E0W', 'TTN188096-E0W', '', ( #20 ) ) ;
#2 = ORIENTED_EDGE ( 'NONE', *, *, #153, .F. ) ;
#3 = EDGE_CURVE ( 'NONE', #95, #135, #141, .T. ) ;
#4 = CARTESIAN_POINT ( 'NONE',  ( 25.39999999999999858, 0.0000000000000000000, 0.0000000000000000000 ) ) ;
#5 = PRODUCT_DEFINITION_FORMATION_WITH_SPECIFIED_SOURCE ( 'ANY', '', #1, .NOT_KNOWN. ) ;
#6 = DIRECTION ( 'NONE',  ( 1.000000000000000000, 0.0000000000000000000, 0.0000000000000000000 ) ) ;
#7 = LOCAL_TIME ( 15, 25, 24.00000000000000000, #126 ) ;
#8 = DIRECTION ( 'NONE',  ( 0.0000000000000000000, 1.000000000000000000, 0.0000000000000000000 ) ) ;
#9 = DIRECTION ( 'NONE',  ( -0.0000000000000000000, -0.0000000000000000000, 1.000000000000000000 ) ) ;
#10 = ADVANCED_FACE ( 'NONE', ( #88 ), #41, .T. ) ;
#11 = CARTESIAN_POINT ( 'NONE',  ( 25.40000000000000213, 0.0000000000000000000, -2.996239491876294458 ) ) ;
#12 = CIRCLE ( 'NONE', #174, 25.39999999999999858 ) ;
#13 = EDGE_LOOP ( 'NONE', ( #269, #199, #265, #163, #44 ) ) ;
#14 = APPROVAL ( #165, 'UNSPECIFIED' ) ;
#15 = DIRECTION ( 'NONE',  ( -0.0000000000000000000, -0.0000000000000000000, 1.000000000000000000 ) ) ;
#16 = PERSON_AND_ORGANIZATION ( #92, #94 ) ;
#17 =( NAMED_UNIT ( * ) SI_UNIT ( $, .STERADIAN. ) SOLID_ANGLE_UNIT ( ) );
#18 = APPROVAL ( #166, 'UNSPECIFIED' ) ;
#19 = CALENDAR_DATE ( 2019, 16, 12 ) ;
#20 = MECHANICAL_CONTEXT ( 'NONE', #33, 'mechanical' ) ;
#21 = CALENDAR_DATE ( 2019, 16, 12 ) ;
#22 = DIRECTION ( 'NONE',  ( 0.7071067811865524577, 8.659560562354994488E-17, -0.7071067811865426878 ) ) ;
#23 = COORDINATED_UNIVERSAL_TIME_OFFSET ( 5, 0, .BEHIND. ) ;
#24 = ORIENTED_EDGE ( 'NONE', *, *, #171, .T. ) ;
#25 = DIRECTION ( 'NONE',  ( 0.0000000000000000000, 0.0000000000000000000, -1.000000000000000000 ) ) ;
#26 = ORIENTED_EDGE ( 'NONE', *, *, #227, .T. ) ;
#27 = CC_DESIGN_PERSON_AND_ORGANIZATION_ASSIGNMENT ( #202, #201, ( #264 ) ) ;
#28 = CARTESIAN_POINT ( 'NONE',  ( 0.0000000000000000000, 0.0000000000000000000, -0.2500000000000002220 ) ) ;
#29 = APPROVAL_DATE_TIME ( #250, #14 ) ;
#30 = CARTESIAN_POINT ( 'NONE',  ( 0.0000000000000000000, 0.0000000000000000000, 0.0000000000000000000 ) ) ;
#31 = ORIENTED_EDGE ( 'NONE', *, *, #204, .T. ) ;
#32 = DIRECTION ( 'NONE',  ( -1.000000000000000000, 0.0000000000000000000, 0.0000000000000000000 ) ) ;
#33 = APPLICATION_CONTEXT ( 'configuration controlled 3d designs of mechanical parts and assemblies' ) ;
#34 = CIRCLE ( 'NONE', #66, 25.40000000000000213 ) ;
#35 = DATE_TIME_ROLE ( 'classification_date' ) ;
#36 = CC_DESIGN_DATE_AND_TIME_ASSIGNMENT ( #247, #35, ( #169 ) ) ;
#37 = CALENDAR_DATE ( 2019, 16, 12 ) ;
#38 = PERSON_AND_ORGANIZATION ( #92, #94 ) ;
#39 = AXIS2_PLACEMENT_3D ( 'NONE', #99, #182, #56 ) ;
#40 = APPROVAL_PERSON_ORGANIZATION ( #16, #259, #68 ) ;
#41 = CYLINDRICAL_SURFACE ( 'NONE', #150, 25.39999999999999858 ) ;
#42 = LOCAL_TIME ( 15, 25, 24.00000000000000000, #162 ) ;
#43 = CONICAL_SURFACE ( 'NONE', #102, 25.14999999999999503, 0.7853981633974552734 ) ;
#44 = ORIENTED_EDGE ( 'NONE', *, *, #153, .T. ) ;
#45 = DIRECTION ( 'NONE',  ( 1.000000000000000000, 0.0000000000000000000, 0.0000000000000000000 ) ) ;
#46 = CARTESIAN_POINT ( 'NONE',  ( -3.110602869834277260E-15, -25.40000000000000213, -2.996239491876294458 ) ) ;
#47 = DESIGN_CONTEXT ( 'detailed design', #148, 'design' ) ;
#48 = DIRECTION ( 'NONE',  ( 1.000000000000000000, 0.0000000000000000000, 0.0000000000000000000 ) ) ;
#49 = ORIENTED_EDGE ( 'NONE', *, *, #139, .F. ) ;
#50 = DIRECTION ( 'NONE',  ( -1.000000000000000000, 1.224646799147353207E-16, 0.0000000000000000000 ) ) ;
#51 = ORIENTED_EDGE ( 'NONE', *, *, #3, .F. ) ;
#52 = CC_DESIGN_PERSON_AND_ORGANIZATION_ASSIGNMENT ( #235, #86, ( #5 ) ) ;
#53 = CARTESIAN_POINT ( 'NONE',  ( 25.39999999999999858, 0.0000000000000000000, -0.2500000000000002220 ) ) ;
#54 = DIRECTION ( 'NONE',  ( -1.000000000000000000, 0.0000000000000000000, -0.0000000000000000000 ) ) ;
#55 = APPROVAL_PERSON_ORGANIZATION ( #209, #18, #60 ) ;
#56 = DIRECTION ( 'NONE',  ( -1.000000000000000000, 0.0000000000000000000, 0.0000000000000000000 ) ) ;
#57 = EDGE_LOOP ( 'NONE', ( #90, #65, #219, #112 ) ) ;
#58 = AXIS2_PLACEMENT_3D ( 'NONE', #28, #239, #256 ) ;
#59 = DATE_TIME_ROLE ( 'creation_date' ) ;
#60 = APPROVAL_ROLE ( '' ) ;
#61 = EDGE_CURVE ( 'NONE', #135, #109, #34, .T. ) ;
#62 = CARTESIAN_POINT ( 'NONE',  ( 0.0000000000000000000, 25.40000000000000213, -2.996239491876294458 ) ) ;
#63 = APPROVAL_DATE_TIME ( #117, #259 ) ;
#64 = LINE ( 'NONE', #4, #111 ) ;
#65 = ORIENTED_EDGE ( 'NONE', *, *, #77, .T. ) ;
#66 = AXIS2_PLACEMENT_3D ( 'NONE', #255, #9, #232 ) ;
#67 = PRODUCT_DEFINITION_SHAPE ( 'NONE', 'NONE',  #264 ) ;
#68 = APPROVAL_ROLE ( '' ) ;
#69 = ORIENTED_EDGE ( 'NONE', *, *, #242, .F. ) ;
#70 = CARTESIAN_POINT ( 'NONE',  ( 0.0000000000000000000, 0.0000000000000000000, -2.996239491876294458 ) ) ;
#71 = CALENDAR_DATE ( 2019, 16, 12 ) ;
#72 = CARTESIAN_POINT ( 'NONE',  ( 0.0000000000000000000, 0.0000000000000000000, 0.0000000000000000000 ) ) ;
#73 = ORIENTED_EDGE ( 'NONE', *, *, #204, .F. ) ;
#74 = CARTESIAN_POINT ( 'NONE',  ( 0.0000000000000000000, 2.656258907350609166E-15, -11.20999999999999730 ) ) ;
#75 = CARTESIAN_POINT ( 'NONE',  ( 0.0000000000000000000, 0.0000000000000000000, -2.996239491876294458 ) ) ;
#76 = PERSON_AND_ORGANIZATION ( #92, #94 ) ;
#77 = EDGE_CURVE ( 'NONE', #173, #210, #236, .T. ) ;
#78 = FACE_OUTER_BOUND ( 'NONE', #57, .T. ) ;
#79 = DIRECTION ( 'NONE',  ( 0.0000000000000000000, 0.0000000000000000000, -1.000000000000000000 ) ) ;
#80 = CARTESIAN_POINT ( 'NONE',  ( -25.39999999999999858, 3.110602869834276865E-15, -0.2500000000000002220 ) ) ;
#81 = CARTESIAN_POINT ( 'NONE',  ( 0.0000000000000000000, 0.0000000000000000000, 0.0000000000000000000 ) ) ;
#82 = CARTESIAN_POINT ( 'NONE',  ( -25.14999999999999503, 0.0000000000000000000, 0.0000000000000000000 ) ) ;
#83 = SECURITY_CLASSIFICATION_LEVEL ( 'unclassified' ) ;
#84 = VECTOR ( 'NONE', #22, 1000.000000000000000 ) ;
#85 =( NAMED_UNIT ( * ) PLANE_ANGLE_UNIT ( ) SI_UNIT ( $, .RADIAN. ) );
#86 = PERSON_AND_ORGANIZATION_ROLE ( 'creator' ) ;
#87 = PERSON_AND_ORGANIZATION ( #92, #94 ) ;
#88 = FACE_OUTER_BOUND ( 'NONE', #180, .T. ) ;
#89 = ADVANCED_FACE ( 'NONE', ( #78 ), #43, .T. ) ;
#90 = ORIENTED_EDGE ( 'NONE', *, *, #177, .F. ) ;
#91 = CC_DESIGN_PERSON_AND_ORGANIZATION_ASSIGNMENT ( #170, #221, ( #169 ) ) ;
#92 = PERSON ( 'UNSPECIFIED', 'UNSPECIFIED', 'UNSPECIFIED', ('UNSPECIFIED'), ('UNSPECIFIED'), ('UNSPECIFIED') ) ;
#93 = AXIS2_PLACEMENT_3D ( 'NONE', #233, #50, #157 ) ;
#94 = ORGANIZATION ( 'UNSPECIFIED', 'UNSPECIFIED', '' ) ;
#95 = VERTEX_POINT ( 'NONE', #74 ) ;
#96 = CARTESIAN_POINT ( 'NONE',  ( 25.14999999999999503, 3.095294784844934972E-15, 0.0000000000000000000 ) ) ;
#97 = COORDINATED_UNIVERSAL_TIME_OFFSET ( 5, 0, .BEHIND. ) ;
#98 = LINE ( 'NONE', #142, #211 ) ;
#99 = CARTESIAN_POINT ( 'NONE',  ( 0.0000000000000000000, 0.0000000000000000000, 0.0000000000000000000 ) ) ;
#100 = ORIENTED_EDGE ( 'NONE', *, *, #187, .T. ) ;
#101 = DIRECTION ( 'NONE',  ( -0.7071067811865524577, 0.0000000000000000000, -0.7071067811865426878 ) ) ;
#102 = AXIS2_PLACEMENT_3D ( 'NONE', #72, #25, #215 ) ;
#103 = DIRECTION ( 'NONE',  ( 1.000000000000000000, 0.0000000000000000000, 0.0000000000000000000 ) ) ;
#104 = CIRCLE ( 'NONE', #39, 25.14999999999999503 ) ;
#105 = ORIENTED_EDGE ( 'NONE', *, *, #124, .F. ) ;
#106 = AXIS2_PLACEMENT_3D ( 'NONE', #70, #252, #48 ) ;
#107 = MANIFOLD_SOLID_BREP ( 'TTN188103-1-solid1', #145 ) ;
#108 = APPROVAL_DATE_TIME ( #261, #18 ) ;
#109 = VERTEX_POINT ( 'NONE', #11 ) ;
#110 =( GEOMETRIC_REPRESENTATION_CONTEXT ( 3 ) GLOBAL_UNCERTAINTY_ASSIGNED_CONTEXT ( ( #234 ) ) GLOBAL_UNIT_ASSIGNED_CONTEXT ( ( #164, #85, #17 ) ) REPRESENTATION_CONTEXT ( 'NONE', 'WORKASPACE' ) );
#111 = VECTOR ( 'NONE', #136, 1000.000000000000000 ) ;
#112 = ORIENTED_EDGE ( 'NONE', *, *, #187, .F. ) ;
#113 = LOCAL_TIME ( 15, 25, 24.00000000000000000, #222 ) ;
#114 = ORIENTED_EDGE ( 'NONE', *, *, #177, .T. ) ;
#115 = DIRECTION ( 'NONE',  ( -0.0000000000000000000, -0.0000000000000000000, 1.000000000000000000 ) ) ;
#116 = CARTESIAN_POINT ( 'NONE',  ( 25.14999999999999503, 3.079986699855593078E-15, 0.0000000000000000000 ) ) ;
#117 = DATE_AND_TIME ( #21, #7 ) ;
#118 = VECTOR ( 'NONE', #101, 1000.000000000000000 ) ;
#119 = EDGE_LOOP ( 'NONE', ( #51, #147, #208, #160 ) ) ;
#120 = AXIS2_PLACEMENT_3D ( 'NONE', #140, #230, #8 ) ;
#121 = ADVANCED_FACE ( 'NONE', ( #254 ), #172, .T. ) ;
#122 = DIRECTION ( 'NONE',  ( -0.0000000000000000000, -0.0000000000000000000, 1.000000000000000000 ) ) ;
#123 = CC_DESIGN_PERSON_AND_ORGANIZATION_ASSIGNMENT ( #38, #183, ( #1 ) ) ;
#124 = EDGE_CURVE ( 'NONE', #266, #155, #223, .T. ) ;
#125 = DIRECTION ( 'NONE',  ( 0.0000000000000000000, 0.0000000000000000000, -1.000000000000000000 ) ) ;
#126 = COORDINATED_UNIVERSAL_TIME_OFFSET ( 5, 0, .BEHIND. ) ;
#127 = SPHERICAL_SURFACE ( 'NONE', #132, 43.38000000000000256 ) ;
#128 = EDGE_LOOP ( 'NONE', ( #69, #245, #193, #105 ) ) ;
#129 = CARTESIAN_POINT ( 'NONE',  ( 0.0000000000000000000, 0.0000000000000000000, -2.996239491876294458 ) ) ;
#130 = PRODUCT_RELATED_PRODUCT_CATEGORY ( 'detail', '', ( #1 ) ) ;
#131 = ADVANCED_FACE ( 'NONE', ( #231 ), #127, .T. ) ;
#132 = AXIS2_PLACEMENT_3D ( 'NONE', #191, #137, #251 ) ;
#133 = CARTESIAN_POINT ( 'NONE',  ( 0.0000000000000000000, 0.0000000000000000000, 0.0000000000000000000 ) ) ;
#134 = CARTESIAN_POINT ( 'NONE',  ( 0.0000000000000000000, 0.0000000000000000000, -0.2500000000000002220 ) ) ;
#135 = VERTEX_POINT ( 'NONE', #46 ) ;
#136 = DIRECTION ( 'NONE',  ( -0.0000000000000000000, -0.0000000000000000000, 1.000000000000000000 ) ) ;
#137 = DIRECTION ( 'NONE',  ( -1.000000000000000000, 0.0000000000000000000, 0.0000000000000000000 ) ) ;
#138 = CC_DESIGN_APPROVAL ( #14, ( #264 ) ) ;
#139 = EDGE_CURVE ( 'NONE', #109, #210, #64, .T. ) ;
#140 = CARTESIAN_POINT ( 'NONE',  ( 0.0000000000000000000, 0.0000000000000000000, 32.17000000000000171 ) ) ;
#141 = CIRCLE ( 'NONE', #93, 43.38000000000000256 ) ;
#142 = CARTESIAN_POINT ( 'NONE',  ( -25.39999999999999858, 3.110602869834276865E-15, 0.0000000000000000000 ) ) ;
#143 = DIRECTION ( 'NONE',  ( 0.0000000000000000000, 0.0000000000000000000, -1.000000000000000000 ) ) ;
#144 = FACE_OUTER_BOUND ( 'NONE', #13, .T. ) ;
#145 = CLOSED_SHELL ( 'NONE', ( #89, #131, #10, #178, #246, #121, #190 ) ) ;
#146 = CARTESIAN_POINT ( 'NONE',  ( 0.0000000000000000000, 0.0000000000000000000, 0.0000000000000000000 ) ) ;
#147 = ORIENTED_EDGE ( 'NONE', *, *, #242, .T. ) ;
#148 = APPLICATION_CONTEXT ( 'configuration controlled 3d designs of mechanical parts and assemblies' ) ;
#149 = CARTESIAN_POINT ( 'NONE',  ( 0.0000000000000000000, 0.0000000000000000000, 0.0000000000000000000 ) ) ;
#150 = AXIS2_PLACEMENT_3D ( 'NONE', #228, #115, #45 ) ;
#151 = ORIENTED_EDGE ( 'NONE', *, *, #216, .T. ) ;
#152 = CC_DESIGN_SECURITY_CLASSIFICATION ( #169, ( #5 ) ) ;
#153 = EDGE_CURVE ( 'NONE', #210, #218, #12, .T. ) ;
#154 = CIRCLE ( 'NONE', #200, 25.14999999999999503 ) ;
#155 = VERTEX_POINT ( 'NONE', #194 ) ;
#156 = DIRECTION ( 'NONE',  ( 0.0000000000000000000, 0.0000000000000000000, -1.000000000000000000 ) ) ;
#157 = DIRECTION ( 'NONE',  ( -1.224646799147353207E-16, -1.000000000000000000, 0.0000000000000000000 ) ) ;
#158 = AXIS2_PLACEMENT_3D ( 'NONE', #226, #185, #125 ) ;
#159 = CIRCLE ( 'NONE', #196, 25.40000000000000213 ) ;
#160 = ORIENTED_EDGE ( 'NONE', *, *, #61, .F. ) ;
#161 = DIRECTION ( 'NONE',  ( -0.0000000000000000000, -0.0000000000000000000, 1.000000000000000000 ) ) ;
#162 = COORDINATED_UNIVERSAL_TIME_OFFSET ( 5, 0, .BEHIND. ) ;
#163 = ORIENTED_EDGE ( 'NONE', *, *, #139, .T. ) ;
#164 =( LENGTH_UNIT ( ) NAMED_UNIT ( * ) SI_UNIT ( .MILLI., .METRE. ) );
#165 = APPROVAL_STATUS ( 'not_yet_approved' ) ;
#166 = APPROVAL_STATUS ( 'not_yet_approved' ) ;
#167 = CIRCLE ( 'NONE', #158, 43.38000000000000256 ) ;
#168 = EDGE_LOOP ( 'NONE', ( #258, #73, #100, #2 ) ) ;
#169 = SECURITY_CLASSIFICATION ( '', '', #83 ) ;
#170 = PERSON_AND_ORGANIZATION ( #92, #94 ) ;
#171 = EDGE_CURVE ( 'NONE', #109, #266, #217, .T. ) ;
#172 = SPHERICAL_SURFACE ( 'NONE', #120, 43.38000000000000256 ) ;
#173 = VERTEX_POINT ( 'NONE', #96 ) ;
#174 = AXIS2_PLACEMENT_3D ( 'NONE', #134, #156, #175 ) ;
#175 = DIRECTION ( 'NONE',  ( -1.000000000000000000, 0.0000000000000000000, 0.0000000000000000000 ) ) ;
#176 = AXIS2_PLACEMENT_3D ( 'NONE', #146, #225, #267 ) ;
#177 = EDGE_CURVE ( 'NONE', #173, #224, #154, .T. ) ;
#178 = ADVANCED_FACE ( 'NONE', ( #207 ), #213, .F. ) ;
#179 = DATE_AND_TIME ( #19, #248 ) ;
#180 = EDGE_LOOP ( 'NONE', ( #24, #214, #151, #26, #49 ) ) ;
#181 = CARTESIAN_POINT ( 'NONE',  ( -25.14999999999999503, 0.0000000000000000000, 0.0000000000000000000 ) ) ;
#182 = DIRECTION ( 'NONE',  ( -0.0000000000000000000, -0.0000000000000000000, 1.000000000000000000 ) ) ;
#183 = PERSON_AND_ORGANIZATION_ROLE ( 'design_owner' ) ;
#184 = APPLICATION_PROTOCOL_DEFINITION ( 'international standard', 'config_control_design', 1994, #148 ) ;
#185 = DIRECTION ( 'NONE',  ( 1.000000000000000000, 0.0000000000000000000, 0.0000000000000000000 ) ) ;
#186 = LINE ( 'NONE', #82, #118 ) ;
#187 = EDGE_CURVE ( 'NONE', #224, #218, #186, .T. ) ;
#188 = APPROVAL_PERSON_ORGANIZATION ( #87, #14, #220 ) ;
#189 = ADVANCED_BREP_SHAPE_REPRESENTATION ( 'TTN188096-E0W', ( #107, #241 ), #110 ) ;
#190 = ADVANCED_FACE ( 'NONE', ( #257 ), #243, .T. ) ;
#191 = CARTESIAN_POINT ( 'NONE',  ( 0.0000000000000000000, 0.0000000000000000000, 32.17000000000000171 ) ) ;
#192 = SHAPE_DEFINITION_REPRESENTATION ( #67, #189 ) ;
#193 = ORIENTED_EDGE ( 'NONE', *, *, #244, .F. ) ;
#194 = CARTESIAN_POINT ( 'NONE',  ( -25.40000000000000568, 3.110602869834277654E-15, -2.996239491876294458 ) ) ;
#195 = CIRCLE ( 'NONE', #58, 25.39999999999999858 ) ;
#196 = AXIS2_PLACEMENT_3D ( 'NONE', #129, #122, #262 ) ;
#197 = CC_DESIGN_APPROVAL ( #259, ( #169 ) ) ;
#198 = CYLINDRICAL_SURFACE ( 'NONE', #176, 25.39999999999999858 ) ;
#199 = ORIENTED_EDGE ( 'NONE', *, *, #244, .T. ) ;
#200 = AXIS2_PLACEMENT_3D ( 'NONE', #81, #161, #32 ) ;
#201 = PERSON_AND_ORGANIZATION_ROLE ( 'creator' ) ;
#202 = PERSON_AND_ORGANIZATION ( #92, #94 ) ;
#203 = CC_DESIGN_PERSON_AND_ORGANIZATION_ASSIGNMENT ( #76, #205, ( #5 ) ) ;
#204 = EDGE_CURVE ( 'NONE', #224, #173, #104, .T. ) ;
#205 = PERSON_AND_ORGANIZATION_ROLE ( 'design_supplier' ) ;
#206 = APPLICATION_PROTOCOL_DEFINITION ( 'international standard', 'config_control_design', 1994, #33 ) ;
#207 = FACE_OUTER_BOUND ( 'NONE', #263, .T. ) ;
#208 = ORIENTED_EDGE ( 'NONE', *, *, #171, .F. ) ;
#209 = PERSON_AND_ORGANIZATION ( #92, #94 ) ;
#210 = VERTEX_POINT ( 'NONE', #53 ) ;
#211 = VECTOR ( 'NONE', #15, 1000.000000000000000 ) ;
#212 = DIRECTION ( 'NONE',  ( -0.0000000000000000000, -0.0000000000000000000, 1.000000000000000000 ) ) ;
#213 = PLANE ( 'NONE',  #253 ) ;
#214 = ORIENTED_EDGE ( 'NONE', *, *, #124, .T. ) ;
#215 = DIRECTION ( 'NONE',  ( -1.000000000000000000, 0.0000000000000000000, 0.0000000000000000000 ) ) ;
#216 = EDGE_CURVE ( 'NONE', #155, #218, #98, .T. ) ;
#217 = CIRCLE ( 'NONE', #249, 25.40000000000000213 ) ;
#218 = VERTEX_POINT ( 'NONE', #80 ) ;
#219 = ORIENTED_EDGE ( 'NONE', *, *, #227, .F. ) ;
#220 = APPROVAL_ROLE ( '' ) ;
#221 = PERSON_AND_ORGANIZATION_ROLE ( 'classification_officer' ) ;
#222 = COORDINATED_UNIVERSAL_TIME_OFFSET ( 5, 0, .BEHIND. ) ;
#223 = CIRCLE ( 'NONE', #106, 25.40000000000000213 ) ;
#224 = VERTEX_POINT ( 'NONE', #181 ) ;
#225 = DIRECTION ( 'NONE',  ( -0.0000000000000000000, -0.0000000000000000000, 1.000000000000000000 ) ) ;
#226 = CARTESIAN_POINT ( 'NONE',  ( 0.0000000000000000000, 0.0000000000000000000, 32.17000000000000171 ) ) ;
#227 = EDGE_CURVE ( 'NONE', #218, #210, #195, .T. ) ;
#228 = CARTESIAN_POINT ( 'NONE',  ( 0.0000000000000000000, 0.0000000000000000000, 0.0000000000000000000 ) ) ;
#229 = CC_DESIGN_APPROVAL ( #18, ( #5 ) ) ;
#230 = DIRECTION ( 'NONE',  ( -1.000000000000000000, 0.0000000000000000000, 0.0000000000000000000 ) ) ;
#231 = FACE_OUTER_BOUND ( 'NONE', #128, .T. ) ;
#232 = DIRECTION ( 'NONE',  ( 1.000000000000000000, 0.0000000000000000000, 0.0000000000000000000 ) ) ;
#233 = CARTESIAN_POINT ( 'NONE',  ( 0.0000000000000000000, 0.0000000000000000000, 32.17000000000000171 ) ) ;
#234 = UNCERTAINTY_MEASURE_WITH_UNIT (LENGTH_MEASURE( 1.000000000000000082E-05 ), #164, 'distance_accuracy_value', 'NONE');
#235 = PERSON_AND_ORGANIZATION ( #92, #94 ) ;
#236 = LINE ( 'NONE', #116, #84 ) ;
#237 = LOCAL_TIME ( 15, 25, 24.00000000000000000, #23 ) ;
#238 = AXIS2_PLACEMENT_3D ( 'NONE', #30, #79, #260 ) ;
#239 = DIRECTION ( 'NONE',  ( 0.0000000000000000000, 0.0000000000000000000, -1.000000000000000000 ) ) ;
#240 = DIRECTION ( 'NONE',  ( 0.0000000000000000000, 0.0000000000000000000, 1.000000000000000000 ) ) ;
#241 = AXIS2_PLACEMENT_3D ( 'NONE', #149, #240, #103 ) ;
#242 = EDGE_CURVE ( 'NONE', #95, #266, #167, .T. ) ;
#243 = CONICAL_SURFACE ( 'NONE', #238, 25.14999999999999503, 0.7853981633974552734 ) ;
#244 = EDGE_CURVE ( 'NONE', #155, #135, #159, .T. ) ;
#245 = ORIENTED_EDGE ( 'NONE', *, *, #3, .T. ) ;
#246 = ADVANCED_FACE ( 'NONE', ( #144 ), #198, .T. ) ;
#247 = DATE_AND_TIME ( #268, #42 ) ;
#248 = LOCAL_TIME ( 15, 25, 24.00000000000000000, #97 ) ;
#249 = AXIS2_PLACEMENT_3D ( 'NONE', #75, #212, #6 ) ;
#250 = DATE_AND_TIME ( #71, #237 ) ;
#251 = DIRECTION ( 'NONE',  ( 0.0000000000000000000, 1.000000000000000000, 0.0000000000000000000 ) ) ;
#252 = DIRECTION ( 'NONE',  ( -0.0000000000000000000, -0.0000000000000000000, 1.000000000000000000 ) ) ;
#253 = AXIS2_PLACEMENT_3D ( 'NONE', #133, #143, #54 ) ;
#254 = FACE_OUTER_BOUND ( 'NONE', #119, .T. ) ;
#255 = CARTESIAN_POINT ( 'NONE',  ( 0.0000000000000000000, 0.0000000000000000000, -2.996239491876294458 ) ) ;
#256 = DIRECTION ( 'NONE',  ( -1.000000000000000000, 0.0000000000000000000, 0.0000000000000000000 ) ) ;
#257 = FACE_OUTER_BOUND ( 'NONE', #168, .T. ) ;
#258 = ORIENTED_EDGE ( 'NONE', *, *, #77, .F. ) ;
#259 = APPROVAL ( #270, 'UNSPECIFIED' ) ;
#260 = DIRECTION ( 'NONE',  ( -1.000000000000000000, 0.0000000000000000000, 0.0000000000000000000 ) ) ;
#261 = DATE_AND_TIME ( #37, #113 ) ;
#262 = DIRECTION ( 'NONE',  ( 1.000000000000000000, 0.0000000000000000000, 0.0000000000000000000 ) ) ;
#263 = EDGE_LOOP ( 'NONE', ( #31, #114 ) ) ;
#264 = PRODUCT_DEFINITION ( 'UNKNOWN', '', #5, #47 ) ;
#265 = ORIENTED_EDGE ( 'NONE', *, *, #61, .T. ) ;
#266 = VERTEX_POINT ( 'NONE', #62 ) ;
#267 = DIRECTION ( 'NONE',  ( 1.000000000000000000, 0.0000000000000000000, 0.0000000000000000000 ) ) ;
#268 = CALENDAR_DATE ( 2019, 16, 12 ) ;
#269 = ORIENTED_EDGE ( 'NONE', *, *, #216, .F. ) ;
#270 = APPROVAL_STATUS ( 'not_yet_approved' ) ;
#271 = CC_DESIGN_DATE_AND_TIME_ASSIGNMENT ( #179, #59, ( #264 ) ) ;
ENDSEC;
END-ISO-10303-21;
