ISO-10303-21;
HEADER;
FILE_DESCRIPTION (( 'STEP AP203' ),
    '1' );
FILE_NAME ('Web Model 34412_34413.step',
    '2017-12-19T15:36:24',
    ( '' ),
    ( '' ),
    'SwSTEP 2.0',
    'SolidWorks 2016',
    '' );
FILE_SCHEMA (( 'CONFIG_CONTROL_DESIGN' ));
ENDSEC;

DATA;
#1 = CALENDAR_DATE ( 2017, 19, 12 ) ;
#2 = CARTESIAN_POINT ( 'NONE',  ( -12.50000000000000000, 0.0000000000000000000, 1.390914152615603700 ) ) ;
#3 = PRODUCT ( 'Web Model 34412_34413', 'Web Model 34412_34413', '', ( #169 ) ) ;
#4 = APPROVAL_ROLE ( '' ) ;
#5 = ORIENTED_EDGE ( 'NONE', *, *, #46, .T. ) ;
#6 = PERSON_AND_ORGANIZATION_ROLE ( 'design_owner' ) ;
#7 =( NAMED_UNIT ( * ) SI_UNIT ( $, .STERADIAN. ) SOLID_ANGLE_UNIT ( ) );
#8 = DIRECTION ( 'NONE',  ( 0.0000000000000000000, 0.0000000000000000000, 1.000000000000000000 ) ) ;
#9 = LOCAL_TIME ( 10, 36, 24.00000000000000000, #98 ) ;
#10 =( LENGTH_UNIT ( ) NAMED_UNIT ( * ) SI_UNIT ( .MILLI., .METRE. ) );
#11 = PRODUCT_DEFINITION_FORMATION_WITH_SPECIFIED_SOURCE ( 'ANY', '', #3, .NOT_KNOWN. ) ;
#12 = ORIENTED_EDGE ( 'NONE', *, *, #120, .F. ) ;
#13 = EDGE_CURVE ( 'NONE', #14, #95, #45, .T. ) ;
#14 = VERTEX_POINT ( 'NONE', #61 ) ;
#15 = APPROVAL_PERSON_ORGANIZATION ( #131, #109, #4 ) ;
#16 = CARTESIAN_POINT ( 'NONE',  ( 0.0000000000000000000, 0.0000000000000000000, -1.500000000000000000 ) ) ;
#17 = LOCAL_TIME ( 10, 36, 24.00000000000000000, #49 ) ;
#18 = APPLICATION_PROTOCOL_DEFINITION ( 'international standard', 'config_control_design', 1994, #142 ) ;
#19 = CARTESIAN_POINT ( 'NONE',  ( 0.0000000000000000000, 0.0000000000000000000, 1.500000000000000000 ) ) ;
#20 = ADVANCED_FACE ( 'NONE', ( #136 ), #74, .F. ) ;
#21 = DIRECTION ( 'NONE',  ( 0.0000000000000000000, 0.008726535498366857000, -0.9999619230641714200 ) ) ;
#22 = CARTESIAN_POINT ( 'NONE',  ( -12.50000000000000000, 0.0000000000000000000, 1.500000000000000000 ) ) ;
#23 = CC_DESIGN_PERSON_AND_ORGANIZATION_ASSIGNMENT ( #82, #34, ( #11 ) ) ;
#24 = APPROVAL_PERSON_ORGANIZATION ( #27, #84, #38 ) ;
#25 = APPLICATION_PROTOCOL_DEFINITION ( 'international standard', 'config_control_design', 1994, #75 ) ;
#26 = FACE_OUTER_BOUND ( 'NONE', #122, .T. ) ;
#27 = PERSON_AND_ORGANIZATION ( #85, #166 ) ;
#28 = CARTESIAN_POINT ( 'NONE',  ( 0.0000000000000000000, 0.0000000000000000000, 1.500000000000000000 ) ) ;
#29 =( BOUNDED_CURVE ( )  B_SPLINE_CURVE ( 3, ( #110, #103, #171, #40 ),
 .UNSPECIFIED., .F., .T. ) 
 B_SPLINE_CURVE_WITH_KNOTS ( ( 4, 4 ),
 ( 1.570796326794896600, 4.712388980384689700 ),
 .UNSPECIFIED. ) 
 CURVE ( )  GEOMETRIC_REPRESENTATION_ITEM ( )  RATIONAL_B_SPLINE_CURVE ( ( 1.000000000000000000, 0.3333333333333333700, 0.3333333333333333700, 1.000000000000000000 ) ) 
 REPRESENTATION_ITEM ( '' )  );
#30 = CC_DESIGN_PERSON_AND_ORGANIZATION_ASSIGNMENT ( #71, #55, ( #11 ) ) ;
#31 = CALENDAR_DATE ( 2017, 19, 12 ) ;
#32 = PERSON_AND_ORGANIZATION ( #85, #166 ) ;
#33 = CARTESIAN_POINT ( 'NONE',  ( -12.50000000000000500, -25.00000000000000000, 1.172742457846810900 ) ) ;
#34 = PERSON_AND_ORGANIZATION_ROLE ( 'design_supplier' ) ;
#35 = CARTESIAN_POINT ( 'NONE',  ( 12.50000000000001100, -25.00000000000000000, 1.172742457846810900 ) ) ;
#36 = APPROVAL_ROLE ( '' ) ;
#37 = CARTESIAN_POINT ( 'NONE',  ( 12.50000000000000000, 1.530808498934191500E-015, 1.500000000000000000 ) ) ;
#38 = APPROVAL_ROLE ( '' ) ;
#39 = DIRECTION ( 'NONE',  ( -0.0000000000000000000, -0.0000000000000000000, -1.000000000000000000 ) ) ;
#40 = CARTESIAN_POINT ( 'NONE',  ( 12.50000000000000000, 1.530808498934191500E-015, 1.390914152615603700 ) ) ;
#41 = CC_DESIGN_DATE_AND_TIME_ASSIGNMENT ( #108, #147, ( #86 ) ) ;
#42 = ADVANCED_FACE ( 'NONE', ( #64 ), #99, .T. ) ;
#43 = LOCAL_TIME ( 10, 36, 24.00000000000000000, #165 ) ;
#44 =( GEOMETRIC_REPRESENTATION_CONTEXT ( 3 ) GLOBAL_UNCERTAINTY_ASSIGNED_CONTEXT ( ( #167 ) ) GLOBAL_UNIT_ASSIGNED_CONTEXT ( ( #10, #105, #7 ) ) REPRESENTATION_CONTEXT ( 'NONE', 'WORKASPACE' ) );
#45 =( BOUNDED_CURVE ( )  B_SPLINE_CURVE ( 3, ( #125, #35, #33, #2 ),
 .UNSPECIFIED., .F., .F. ) 
 B_SPLINE_CURVE_WITH_KNOTS ( ( 4, 4 ),
 ( 4.712388980384689700, 7.853981633974482800 ),
 .UNSPECIFIED. ) 
 CURVE ( )  GEOMETRIC_REPRESENTATION_ITEM ( )  RATIONAL_B_SPLINE_CURVE ( ( 1.000000000000000000, 0.3333333333333333700, 0.3333333333333333700, 1.000000000000000000 ) ) 
 REPRESENTATION_ITEM ( '' )  );
#46 = EDGE_CURVE ( 'NONE', #95, #47, #83, .T. ) ;
#47 = VERTEX_POINT ( 'NONE', #158 ) ;
#48 = AXIS2_PLACEMENT_3D ( 'NONE', #104, #21, #133 ) ;
#49 = COORDINATED_UNIVERSAL_TIME_OFFSET ( 5, 0, .BEHIND. ) ;
#50 = APPROVAL_PERSON_ORGANIZATION ( #87, #126, #36 ) ;
#51 = CC_DESIGN_DATE_AND_TIME_ASSIGNMENT ( #135, #93, ( #96 ) ) ;
#52 = APPROVAL_DATE_TIME ( #172, #84 ) ;
#53 = MANIFOLD_SOLID_BREP ( 'Cut-Extrude1', #113 ) ;
#54 = EDGE_LOOP ( 'NONE', ( #12, #107, #5, #57 ) ) ;
#55 = PERSON_AND_ORGANIZATION_ROLE ( 'creator' ) ;
#56 = FACE_OUTER_BOUND ( 'NONE', #116, .T. ) ;
#57 = ORIENTED_EDGE ( 'NONE', *, *, #139, .T. ) ;
#58 = AXIS2_PLACEMENT_3D ( 'NONE', #69, #8, #173 ) ;
#59 = VECTOR ( 'NONE', #66, 1000.000000000000000 ) ;
#60 = DATE_AND_TIME ( #97, #115 ) ;
#61 = CARTESIAN_POINT ( 'NONE',  ( 12.50000000000000000, 1.530808498934191500E-015, 1.390914152615603700 ) ) ;
#62 = ADVANCED_FACE ( 'NONE', ( #26 ), #141, .F. ) ;
#63 = SHAPE_DEFINITION_REPRESENTATION ( #151, #153 ) ;
#64 = FACE_OUTER_BOUND ( 'NONE', #54, .T. ) ;
#65 = AXIS2_PLACEMENT_3D ( 'NONE', #117, #134, #80 ) ;
#66 = DIRECTION ( 'NONE',  ( -0.0000000000000000000, -0.0000000000000000000, -1.000000000000000000 ) ) ;
#67 = CYLINDRICAL_SURFACE ( 'NONE', #89, 12.50000000000000000 ) ;
#68 = DIRECTION ( 'NONE',  ( -1.000000000000000000, 0.0000000000000000000, 0.0000000000000000000 ) ) ;
#69 = CARTESIAN_POINT ( 'NONE',  ( 0.0000000000000000000, 0.0000000000000000000, -1.500000000000000000 ) ) ;
#70 = ORIENTED_EDGE ( 'NONE', *, *, #157, .F. ) ;
#71 = PERSON_AND_ORGANIZATION ( #85, #166 ) ;
#72 = COORDINATED_UNIVERSAL_TIME_OFFSET ( 5, 0, .BEHIND. ) ;
#73 = COORDINATED_UNIVERSAL_TIME_OFFSET ( 5, 0, .BEHIND. ) ;
#74 = PLANE ( 'NONE',  #159 ) ;
#75 = APPLICATION_CONTEXT ( 'configuration controlled 3d designs of mechanical parts and assemblies' ) ;
#76 = APPROVAL_STATUS ( 'not_yet_approved' ) ;
#77 = DIRECTION ( 'NONE',  ( 1.000000000000000000, 0.0000000000000000000, 0.0000000000000000000 ) ) ;
#78 = DATE_AND_TIME ( #31, #17 ) ;
#79 = CARTESIAN_POINT ( 'NONE',  ( 0.0000000000000000000, 0.0000000000000000000, 0.0000000000000000000 ) ) ;
#80 = DIRECTION ( 'NONE',  ( 1.000000000000000000, 0.0000000000000000000, 0.0000000000000000000 ) ) ;
#81 = CIRCLE ( 'NONE', #58, 12.50000000000000000 ) ;
#82 = PERSON_AND_ORGANIZATION ( #85, #166 ) ;
#83 = LINE ( 'NONE', #22, #59 ) ;
#84 = APPROVAL ( #76, 'UNSPECIFIED' ) ;
#85 = PERSON ( 'UNSPECIFIED', 'UNSPECIFIED', 'UNSPECIFIED', ('UNSPECIFIED'), ('UNSPECIFIED'), ('UNSPECIFIED') ) ;
#86 = PRODUCT_DEFINITION ( 'UNKNOWN', '', #11, #111 ) ;
#87 = PERSON_AND_ORGANIZATION ( #85, #166 ) ;
#88 = VERTEX_POINT ( 'NONE', #156 ) ;
#89 = AXIS2_PLACEMENT_3D ( 'NONE', #28, #148, #68 ) ;
#90 = CIRCLE ( 'NONE', #65, 12.50000000000000000 ) ;
#91 = APPROVAL_STATUS ( 'not_yet_approved' ) ;
#92 = CC_DESIGN_PERSON_AND_ORGANIZATION_ASSIGNMENT ( #163, #140, ( #96 ) ) ;
#93 = DATE_TIME_ROLE ( 'classification_date' ) ;
#94 = CC_DESIGN_APPROVAL ( #84, ( #86 ) ) ;
#95 = VERTEX_POINT ( 'NONE', #112 ) ;
#96 = SECURITY_CLASSIFICATION ( '', '', #145 ) ;
#97 = CALENDAR_DATE ( 2017, 19, 12 ) ;
#98 = COORDINATED_UNIVERSAL_TIME_OFFSET ( 5, 0, .BEHIND. ) ;
#99 = CYLINDRICAL_SURFACE ( 'NONE', #137, 12.50000000000000000 ) ;
#100 = CC_DESIGN_PERSON_AND_ORGANIZATION_ASSIGNMENT ( #32, #130, ( #86 ) ) ;
#101 = DIRECTION ( 'NONE',  ( 1.000000000000000000, 0.0000000000000000000, -0.0000000000000000000 ) ) ;
#102 = ORIENTED_EDGE ( 'NONE', *, *, #13, .F. ) ;
#103 = CARTESIAN_POINT ( 'NONE',  ( -12.50000000000000500, 25.00000000000000000, 1.609085847384396800 ) ) ;
#104 = CARTESIAN_POINT ( 'NONE',  ( -12.50000000000000000, 12.50000000000000000, 1.500000000000000000 ) ) ;
#105 =( NAMED_UNIT ( * ) PLANE_ANGLE_UNIT ( ) SI_UNIT ( $, .RADIAN. ) );
#106 = CALENDAR_DATE ( 2017, 19, 12 ) ;
#107 = ORIENTED_EDGE ( 'NONE', *, *, #13, .T. ) ;
#108 = DATE_AND_TIME ( #106, #9 ) ;
#109 = APPROVAL ( #170, 'UNSPECIFIED' ) ;
#110 = CARTESIAN_POINT ( 'NONE',  ( -12.50000000000000000, 0.0000000000000000000, 1.390914152615603700 ) ) ;
#111 = DESIGN_CONTEXT ( 'detailed design', #142, 'design' ) ;
#112 = CARTESIAN_POINT ( 'NONE',  ( -12.50000000000000000, 0.0000000000000000000, 1.390914152615603700 ) ) ;
#113 = CLOSED_SHELL ( 'NONE', ( #144, #42, #20, #62 ) ) ;
#114 = EDGE_CURVE ( 'NONE', #95, #14, #29, .T. ) ;
#115 = LOCAL_TIME ( 10, 36, 24.00000000000000000, #72 ) ;
#116 = EDGE_LOOP ( 'NONE', ( #155, #174, #124, #149 ) ) ;
#117 = CARTESIAN_POINT ( 'NONE',  ( 0.0000000000000000000, 0.0000000000000000000, -1.500000000000000000 ) ) ;
#118 = CC_DESIGN_PERSON_AND_ORGANIZATION_ASSIGNMENT ( #132, #6, ( #3 ) ) ;
#119 = ORIENTED_EDGE ( 'NONE', *, *, #139, .F. ) ;
#120 = EDGE_CURVE ( 'NONE', #14, #88, #150, .T. ) ;
#121 = VECTOR ( 'NONE', #39, 1000.000000000000000 ) ;
#122 = EDGE_LOOP ( 'NONE', ( #152, #102 ) ) ;
#123 = CC_DESIGN_SECURITY_CLASSIFICATION ( #96, ( #11 ) ) ;
#124 = ORIENTED_EDGE ( 'NONE', *, *, #157, .T. ) ;
#125 = CARTESIAN_POINT ( 'NONE',  ( 12.50000000000000000, 1.530808498934191500E-015, 1.390914152615603700 ) ) ;
#126 = APPROVAL ( #91, 'UNSPECIFIED' ) ;
#127 = APPROVAL_DATE_TIME ( #60, #126 ) ;
#128 = LOCAL_TIME ( 10, 36, 24.00000000000000000, #73 ) ;
#129 = DIRECTION ( 'NONE',  ( -0.0000000000000000000, -0.0000000000000000000, -1.000000000000000000 ) ) ;
#130 = PERSON_AND_ORGANIZATION_ROLE ( 'creator' ) ;
#131 = PERSON_AND_ORGANIZATION ( #85, #166 ) ;
#132 = PERSON_AND_ORGANIZATION ( #85, #166 ) ;
#133 = DIRECTION ( 'NONE',  ( 0.0000000000000000000, 0.9999619230641713100, 0.008726535498366855300 ) ) ;
#134 = DIRECTION ( 'NONE',  ( 0.0000000000000000000, 0.0000000000000000000, 1.000000000000000000 ) ) ;
#135 = DATE_AND_TIME ( #1, #43 ) ;
#136 = FACE_OUTER_BOUND ( 'NONE', #138, .T. ) ;
#137 = AXIS2_PLACEMENT_3D ( 'NONE', #19, #129, #143 ) ;
#138 = EDGE_LOOP ( 'NONE', ( #119, #70 ) ) ;
#139 = EDGE_CURVE ( 'NONE', #47, #88, #81, .T. ) ;
#140 = PERSON_AND_ORGANIZATION_ROLE ( 'classification_officer' ) ;
#141 = PLANE ( 'NONE',  #48 ) ;
#142 = APPLICATION_CONTEXT ( 'configuration controlled 3d designs of mechanical parts and assemblies' ) ;
#143 = DIRECTION ( 'NONE',  ( -1.000000000000000000, 0.0000000000000000000, 0.0000000000000000000 ) ) ;
#144 = ADVANCED_FACE ( 'NONE', ( #56 ), #67, .T. ) ;
#145 = SECURITY_CLASSIFICATION_LEVEL ( 'unclassified' ) ;
#146 = AXIS2_PLACEMENT_3D ( 'NONE', #79, #161, #77 ) ;
#147 = DATE_TIME_ROLE ( 'creation_date' ) ;
#148 = DIRECTION ( 'NONE',  ( -0.0000000000000000000, -0.0000000000000000000, -1.000000000000000000 ) ) ;
#149 = ORIENTED_EDGE ( 'NONE', *, *, #46, .F. ) ;
#150 = LINE ( 'NONE', #37, #121 ) ;
#151 = PRODUCT_DEFINITION_SHAPE ( 'NONE', 'NONE',  #86 ) ;
#152 = ORIENTED_EDGE ( 'NONE', *, *, #114, .F. ) ;
#153 = ADVANCED_BREP_SHAPE_REPRESENTATION ( 'Web Model 34412_34413', ( #53, #146 ), #44 ) ;
#154 = CALENDAR_DATE ( 2017, 19, 12 ) ;
#155 = ORIENTED_EDGE ( 'NONE', *, *, #114, .T. ) ;
#156 = CARTESIAN_POINT ( 'NONE',  ( 12.50000000000000000, 1.530808498934191500E-015, -1.500000000000000000 ) ) ;
#157 = EDGE_CURVE ( 'NONE', #88, #47, #90, .T. ) ;
#158 = CARTESIAN_POINT ( 'NONE',  ( -12.50000000000000000, 0.0000000000000000000, -1.500000000000000000 ) ) ;
#159 = AXIS2_PLACEMENT_3D ( 'NONE', #16, #168, #101 ) ;
#160 = APPROVAL_DATE_TIME ( #78, #109 ) ;
#161 = DIRECTION ( 'NONE',  ( 0.0000000000000000000, 0.0000000000000000000, 1.000000000000000000 ) ) ;
#162 = CC_DESIGN_APPROVAL ( #126, ( #11 ) ) ;
#163 = PERSON_AND_ORGANIZATION ( #85, #166 ) ;
#164 = PRODUCT_RELATED_PRODUCT_CATEGORY ( 'detail', '', ( #3 ) ) ;
#165 = COORDINATED_UNIVERSAL_TIME_OFFSET ( 5, 0, .BEHIND. ) ;
#166 = ORGANIZATION ( 'UNSPECIFIED', 'UNSPECIFIED', '' ) ;
#167 = UNCERTAINTY_MEASURE_WITH_UNIT (LENGTH_MEASURE( 1.000000000000000100E-005 ), #10, 'distance_accuracy_value', 'NONE');
#168 = DIRECTION ( 'NONE',  ( 0.0000000000000000000, 0.0000000000000000000, 1.000000000000000000 ) ) ;
#169 = MECHANICAL_CONTEXT ( 'NONE', #75, 'mechanical' ) ;
#170 = APPROVAL_STATUS ( 'not_yet_approved' ) ;
#171 = CARTESIAN_POINT ( 'NONE',  ( 12.50000000000000000, 25.00000000000000000, 1.609085847384396800 ) ) ;
#172 = DATE_AND_TIME ( #154, #128 ) ;
#173 = DIRECTION ( 'NONE',  ( 1.000000000000000000, 0.0000000000000000000, 0.0000000000000000000 ) ) ;
#174 = ORIENTED_EDGE ( 'NONE', *, *, #120, .T. ) ;
#175 = CC_DESIGN_APPROVAL ( #109, ( #96 ) ) ;
ENDSEC;
END-ISO-10303-21;
