ISO-10303-21;
HEADER;
FILE_DESCRIPTION (( 'STEP AP214' ),
    '1' );
FILE_NAME ('4864-E0W.STEP',
    '2009-12-21T17:15:39',
    ( ' ' ),
    ( ' ' ),
    'SwSTEP 2.0',
    'SolidWorks 2009',
    '' );
FILE_SCHEMA (( 'AUTOMOTIVE_DESIGN' ));
ENDSEC;

DATA;
#1 = ADVANCED_FACE ( 'NONE', ( #44 ), #75, .T. ) ;
#2 = EDGE_LOOP ( 'NONE', ( #4, #3, #301, #319 ) ) ;
#3 = ORIENTED_EDGE ( 'NONE', *, *, #299, .T. ) ;
#4 = ORIENTED_EDGE ( 'NONE', *, *, #14, .T. ) ;
#5 = PRESENTATION_STYLE_ASSIGNMENT (( #41 ) ) ;
#6 = DIRECTION ( 'NONE',  ( -0.0000000000000000000, -0.0000000000000000000, 1.000000000000000000 ) ) ;
#7 =( LENGTH_UNIT ( ) NAMED_UNIT ( * ) SI_UNIT ( .MILLI., .METRE. ) );
#8 = DIRECTION ( 'NONE',  ( 1.000000000000000000, 0.0000000000000000000, 0.0000000000000000000 ) ) ;
#9 = EDGE_CURVE ( 'NONE', #315, #11, #71, .T. ) ;
#10 = EDGE_CURVE ( 'NONE', #11, #15, #62, .T. ) ;
#11 = VERTEX_POINT ( 'NONE', #53 ) ;
#12 = VERTEX_POINT ( 'NONE', #56 ) ;
#13 = ORIENTED_EDGE ( 'NONE', *, *, #14, .F. ) ;
#14 = EDGE_CURVE ( 'NONE', #15, #12, #66, .T. ) ;
#15 = VERTEX_POINT ( 'NONE', #50 ) ;
#16 = ORIENTED_EDGE ( 'NONE', *, *, #9, .F. ) ;
#17 = ORIENTED_EDGE ( 'NONE', *, *, #10, .F. ) ;
#18 = VERTEX_POINT ( 'NONE', #49 ) ;
#19 = EDGE_CURVE ( 'NONE', #281, #18, #78, .T. ) ;
#20 = STYLED_ITEM ( 'NONE', ( #5 ), #1 ) ;
#21 = EDGE_CURVE ( 'NONE', #24, #315, #74, .T. ) ;
#22 = ORIENTED_EDGE ( 'NONE', *, *, #19, .F. ) ;
#23 = ORIENTED_EDGE ( 'NONE', *, *, #21, .F. ) ;
#24 = VERTEX_POINT ( 'NONE', #104 ) ;
#25 =( NAMED_UNIT ( * ) PLANE_ANGLE_UNIT ( ) SI_UNIT ( $, .RADIAN. ) );
#26 =( NAMED_UNIT ( * ) SI_UNIT ( $, .STERADIAN. ) SOLID_ANGLE_UNIT ( ) );
#27 =( LENGTH_UNIT ( ) NAMED_UNIT ( * ) SI_UNIT ( .MILLI., .METRE. ) );
#28 = MECHANICAL_DESIGN_GEOMETRIC_PRESENTATION_REPRESENTATION (  '', ( #20 ), #33 ) ;
#29 = UNCERTAINTY_MEASURE_WITH_UNIT (LENGTH_MEASURE( 1.000000000000000100E-005 ), #27, 'distance_accuracy_value', 'NONE');
#30 = PRESENTATION_LAYER_ASSIGNMENT (  '', '', ( #20 ) ) ;
#31 = CIRCLE ( 'NONE', #34, 100.0800000000000000 ) ;
#32 =( NAMED_UNIT ( * ) SI_UNIT ( $, .STERADIAN. ) SOLID_ANGLE_UNIT ( ) );
#33 =( GEOMETRIC_REPRESENTATION_CONTEXT ( 3 ) GLOBAL_UNCERTAINTY_ASSIGNED_CONTEXT ( ( #29 ) ) GLOBAL_UNIT_ASSIGNED_CONTEXT ( ( #27, #25, #26 ) ) REPRESENTATION_CONTEXT ( 'NONE', 'WORKASPACE' ) );
#34 = AXIS2_PLACEMENT_3D ( 'NONE', #38, #37, #36 ) ;
#35 =( NAMED_UNIT ( * ) PLANE_ANGLE_UNIT ( ) SI_UNIT ( $, .RADIAN. ) );
#36 = DIRECTION ( 'NONE',  ( 0.0000000000000000000, 0.0000000000000000000, -1.000000000000000000 ) ) ;
#37 = DIRECTION ( 'NONE',  ( 1.000000000000000000, 0.0000000000000000000, 0.0000000000000000000 ) ) ;
#38 = CARTESIAN_POINT ( 'NONE',  ( 0.0000000000000000000, 0.0000000000000000000, -96.95094689560868100 ) ) ;
#39 = UNCERTAINTY_MEASURE_WITH_UNIT (LENGTH_MEASURE( 1.000000000000000100E-005 ), #7, 'distance_accuracy_value', 'NONE');
#40 = SURFACE_STYLE_FILL_AREA ( #112 ) ;
#41 = SURFACE_STYLE_USAGE ( .BOTH. , #42 ) ;
#42 = SURFACE_SIDE_STYLE ('',( #43 ) ) ;
#43 = SURFACE_STYLE_FILL_AREA ( #45 ) ;
#44 = FACE_OUTER_BOUND ( 'NONE', #2, .T. ) ;
#45 = FILL_AREA_STYLE ('',( #47 ) ) ;
#46 = COLOUR_RGB ( '',0.9568627450980391500, 0.9490196078431372100, 0.9607843137254902200 ) ;
#47 = FILL_AREA_STYLE_COLOUR ( '', #46 ) ;
#48 = DIRECTION ( 'NONE',  ( -0.0000000000000000000, -0.0000000000000000000, 1.000000000000000000 ) ) ;
#49 = CARTESIAN_POINT ( 'NONE',  ( 0.0000000000000000000, 1.709060627394509600E-014, -1.970946895608671800 ) ) ;
#50 = CARTESIAN_POINT ( 'NONE',  ( 0.0000000000000000000, 25.40000000000000200, -0.1478147148780894800 ) ) ;
#51 = DIRECTION ( 'NONE',  ( -1.000000000000000000, 0.0000000000000000000, 0.0000000000000000000 ) ) ;
#52 = CARTESIAN_POINT ( 'NONE',  ( 25.39999999999999900, 0.0000000000000000000, 9.484156859232379900 ) ) ;
#53 = CARTESIAN_POINT ( 'NONE',  ( 25.39999999999999900, 0.0000000000000000000, -0.1478147148780816800 ) ) ;
#54 = CARTESIAN_POINT ( 'NONE',  ( 0.0000000000000000000, 0.0000000000000000000, -0.1478147148780816800 ) ) ;
#55 = DIRECTION ( 'NONE',  ( 0.0000000000000000000, 1.000000000000000000, 0.0000000000000000000 ) ) ;
#56 = CARTESIAN_POINT ( 'NONE',  ( -25.39999999999999900, 3.110500138708838200E-015, -0.1478147148780816800 ) ) ;
#57 = AXIS2_PLACEMENT_3D ( 'NONE', #72, #48, #64 ) ;
#58 = CARTESIAN_POINT ( 'NONE',  ( 0.0000000000000000000, 0.0000000000000000000, -3.129053104391321700 ) ) ;
#59 = CARTESIAN_POINT ( 'NONE',  ( 0.0000000000000000000, 0.0000000000000000000, -96.95094689560868100 ) ) ;
#60 = DIRECTION ( 'NONE',  ( -0.0000000000000000000, -0.0000000000000000000, 1.000000000000000000 ) ) ;
#61 = VECTOR ( 'NONE', #65, 1000.000000000000000 ) ;
#62 = CIRCLE ( 'NONE', #57, 25.39999999999999900 ) ;
#63 = AXIS2_PLACEMENT_3D ( 'NONE', #59, #51, #55 ) ;
#64 = DIRECTION ( 'NONE',  ( 1.000000000000000000, 0.0000000000000000000, 0.0000000000000000000 ) ) ;
#65 = DIRECTION ( 'NONE',  ( -0.0000000000000000000, -0.0000000000000000000, 1.000000000000000000 ) ) ;
#66 = CIRCLE ( 'NONE', #77, 25.39999999999999900 ) ;
#67 = DIRECTION ( 'NONE',  ( 0.0000000000000000000, 0.0000000000000000000, -1.000000000000000000 ) ) ;
#68 = DIRECTION ( 'NONE',  ( 1.000000000000000000, -0.0000000000000000000, 0.0000000000000000000 ) ) ;
#69 = CARTESIAN_POINT ( 'NONE',  ( 0.0000000000000000000, 0.0000000000000000000, -281.0909468956086200 ) ) ;
#70 = AXIS2_PLACEMENT_3D ( 'NONE', #69, #68, #67 ) ;
#71 = LINE ( 'NONE', #52, #61 ) ;
#72 = CARTESIAN_POINT ( 'NONE',  ( 0.0000000000000000000, 0.0000000000000000000, -0.1478147148780816800 ) ) ;
#73 = AXIS2_PLACEMENT_3D ( 'NONE', #58, #6, #8 ) ;
#74 = CIRCLE ( 'NONE', #73, 25.39999999999999900 ) ;
#75 = SPHERICAL_SURFACE ( 'NONE', #63, 100.0800000000000000 ) ;
#76 = DIRECTION ( 'NONE',  ( 1.000000000000000000, 0.0000000000000000000, 0.0000000000000000000 ) ) ;
#77 = AXIS2_PLACEMENT_3D ( 'NONE', #54, #60, #76 ) ;
#78 = CIRCLE ( 'NONE', #70, 279.1200000000000600 ) ;
#79 = FACE_OUTER_BOUND ( 'NONE', #291, .T. ) ;
#80 =( GEOMETRIC_REPRESENTATION_CONTEXT ( 3 ) GLOBAL_UNCERTAINTY_ASSIGNED_CONTEXT ( ( #39 ) ) GLOBAL_UNIT_ASSIGNED_CONTEXT ( ( #7, #35, #32 ) ) REPRESENTATION_CONTEXT ( 'NONE', 'WORKASPACE' ) );
#81 = PRESENTATION_STYLE_ASSIGNMENT (( #82 ) ) ;
#82 = SURFACE_STYLE_USAGE ( .BOTH. , #83 ) ;
#83 = SURFACE_SIDE_STYLE ('',( #40 ) ) ;
#84 = UNCERTAINTY_MEASURE_WITH_UNIT (LENGTH_MEASURE( 1.000000000000000100E-005 ), #107, 'distance_accuracy_value', 'NONE');
#85 = FACE_OUTER_BOUND ( 'NONE', #284, .T. ) ;
#86 = COLOUR_RGB ( '',0.9568627450980391500, 0.9490196078431372100, 0.9607843137254902200 ) ;
#87 =( NAMED_UNIT ( * ) SI_UNIT ( $, .STERADIAN. ) SOLID_ANGLE_UNIT ( ) );
#88 = CARTESIAN_POINT ( 'NONE',  ( -25.39999999999999900, 3.110500138708838200E-015, -3.129053104391321700 ) ) ;
#89 = DIRECTION ( 'NONE',  ( -0.0000000000000000000, -0.0000000000000000000, 1.000000000000000000 ) ) ;
#90 = CARTESIAN_POINT ( 'NONE',  ( 0.0000000000000000000, 0.0000000000000000000, 9.484156859232379900 ) ) ;
#91 = DIRECTION ( 'NONE',  ( 1.000000000000000000, 0.0000000000000000000, 0.0000000000000000000 ) ) ;
#92 = SURFACE_STYLE_FILL_AREA ( #93 ) ;
#93 = FILL_AREA_STYLE ('',( #94 ) ) ;
#94 = FILL_AREA_STYLE_COLOUR ( '', #86 ) ;
#95 = DIRECTION ( 'NONE',  ( 1.000000000000000000, 0.0000000000000000000, 0.0000000000000000000 ) ) ;
#96 = DIRECTION ( 'NONE',  ( -0.0000000000000000000, -0.0000000000000000000, 1.000000000000000000 ) ) ;
#97 = CARTESIAN_POINT ( 'NONE',  ( 0.0000000000000000000, 0.0000000000000000000, -3.129053104391321700 ) ) ;
#98 = AXIS2_PLACEMENT_3D ( 'NONE', #97, #96, #95 ) ;
#99 = CIRCLE ( 'NONE', #98, 25.39999999999999900 ) ;
#100 =( NAMED_UNIT ( * ) PLANE_ANGLE_UNIT ( ) SI_UNIT ( $, .RADIAN. ) );
#101 =( GEOMETRIC_REPRESENTATION_CONTEXT ( 3 ) GLOBAL_UNCERTAINTY_ASSIGNED_CONTEXT ( ( #84 ) ) GLOBAL_UNIT_ASSIGNED_CONTEXT ( ( #107, #100, #87 ) ) REPRESENTATION_CONTEXT ( 'NONE', 'WORKASPACE' ) );
#102 = PRESENTATION_LAYER_ASSIGNMENT (  '', '', ( #103 ) ) ;
#103 = STYLED_ITEM ( 'NONE', ( #109 ), #270 ) ;
#104 = CARTESIAN_POINT ( 'NONE',  ( -3.110500138708845300E-015, -25.40000000000005500, -3.129053104391321700 ) ) ;
#105 = CYLINDRICAL_SURFACE ( 'NONE', #106, 25.39999999999999900 ) ;
#106 = AXIS2_PLACEMENT_3D ( 'NONE', #90, #89, #91 ) ;
#107 =( LENGTH_UNIT ( ) NAMED_UNIT ( * ) SI_UNIT ( .MILLI., .METRE. ) );
#108 = MECHANICAL_DESIGN_GEOMETRIC_PRESENTATION_REPRESENTATION (  '', ( #103 ), #101 ) ;
#109 = PRESENTATION_STYLE_ASSIGNMENT (( #110 ) ) ;
#110 = SURFACE_STYLE_USAGE ( .BOTH. , #111 ) ;
#111 = SURFACE_SIDE_STYLE ('',( #92 ) ) ;
#112 = FILL_AREA_STYLE ('',( #118 ) ) ;
#113 = COLOUR_RGB ( '',0.9568627450980391500, 0.9490196078431372100, 0.9607843137254902200 ) ;
#114 = DIRECTION ( 'NONE',  ( -0.0000000000000000000, -0.0000000000000000000, 1.000000000000000000 ) ) ;
#115 = VECTOR ( 'NONE', #114, 1000.000000000000000 ) ;
#116 = CARTESIAN_POINT ( 'NONE',  ( -25.39999999999999900, 3.110500138708838200E-015, 9.484156859232379900 ) ) ;
#117 = LINE ( 'NONE', #116, #115 ) ;
#118 = FILL_AREA_STYLE_COLOUR ( '', #113 ) ;
#119 = SURFACE_SIDE_STYLE ('',( #144 ) ) ;
#120 =( GEOMETRIC_REPRESENTATION_CONTEXT ( 3 ) GLOBAL_UNCERTAINTY_ASSIGNED_CONTEXT ( ( #155 ) ) GLOBAL_UNIT_ASSIGNED_CONTEXT ( ( #132, #152, #131 ) ) REPRESENTATION_CONTEXT ( 'NONE', 'WORKASPACE' ) );
#121 = PRESENTATION_STYLE_ASSIGNMENT (( #153 ) ) ;
#122 = FACE_OUTER_BOUND ( 'NONE', #279, .T. ) ;
#123 = STYLED_ITEM ( 'NONE', ( #121 ), #278 ) ;
#124 = CARTESIAN_POINT ( 'NONE',  ( 0.0000000000000000000, 0.0000000000000000000, -3.129053104391321700 ) ) ;
#125 = DIRECTION ( 'NONE',  ( 1.000000000000000000, 0.0000000000000000000, 0.0000000000000000000 ) ) ;
#126 = DIRECTION ( 'NONE',  ( -0.0000000000000000000, -0.0000000000000000000, 1.000000000000000000 ) ) ;
#127 = AXIS2_PLACEMENT_3D ( 'NONE', #124, #126, #125 ) ;
#128 = CIRCLE ( 'NONE', #127, 25.39999999999999900 ) ;
#129 = COLOUR_RGB ( '',0.7960784313725489700, 0.8235294117647058400, 0.9372549019607843100 ) ;
#130 = MECHANICAL_DESIGN_GEOMETRIC_PRESENTATION_REPRESENTATION (  '', ( #123 ), #120 ) ;
#131 =( NAMED_UNIT ( * ) SI_UNIT ( $, .STERADIAN. ) SOLID_ANGLE_UNIT ( ) );
#132 =( LENGTH_UNIT ( ) NAMED_UNIT ( * ) SI_UNIT ( .MILLI., .METRE. ) );
#133 = FILL_AREA_STYLE ('',( #151 ) ) ;
#134 = COLOUR_RGB ( '',0.9568627450980391500, 0.9490196078431372100, 0.9607843137254902200 ) ;
#135 = MECHANICAL_DESIGN_GEOMETRIC_PRESENTATION_REPRESENTATION (  '', ( #137 ), #80 ) ;
#136 = PRESENTATION_LAYER_ASSIGNMENT (  '', '', ( #137 ) ) ;
#137 = STYLED_ITEM ( 'NONE', ( #138 ), #289 ) ;
#138 = PRESENTATION_STYLE_ASSIGNMENT (( #139 ) ) ;
#139 = SURFACE_STYLE_USAGE ( .BOTH. , #140 ) ;
#140 = SURFACE_SIDE_STYLE ('',( #141 ) ) ;
#141 = SURFACE_STYLE_FILL_AREA ( #142 ) ;
#142 = FILL_AREA_STYLE ('',( #143 ) ) ;
#143 = FILL_AREA_STYLE_COLOUR ( '', #129 ) ;
#144 = SURFACE_STYLE_FILL_AREA ( #133 ) ;
#145 = CARTESIAN_POINT ( 'NONE',  ( 0.0000000000000000000, 0.0000000000000000000, -96.95094689560868100 ) ) ;
#146 = CARTESIAN_POINT ( 'NONE',  ( 0.0000000000000000000, 25.40000000000005500, -3.129053104391321700 ) ) ;
#147 = DIRECTION ( 'NONE',  ( 0.0000000000000000000, 1.000000000000000000, 0.0000000000000000000 ) ) ;
#148 = DIRECTION ( 'NONE',  ( -1.000000000000000000, 0.0000000000000000000, 0.0000000000000000000 ) ) ;
#149 = AXIS2_PLACEMENT_3D ( 'NONE', #145, #148, #147 ) ;
#150 = SPHERICAL_SURFACE ( 'NONE', #149, 100.0800000000000000 ) ;
#151 = FILL_AREA_STYLE_COLOUR ( '', #134 ) ;
#152 =( NAMED_UNIT ( * ) PLANE_ANGLE_UNIT ( ) SI_UNIT ( $, .RADIAN. ) );
#153 = SURFACE_STYLE_USAGE ( .BOTH. , #119 ) ;
#154 = PRESENTATION_LAYER_ASSIGNMENT (  '', '', ( #123 ) ) ;
#155 = UNCERTAINTY_MEASURE_WITH_UNIT (LENGTH_MEASURE( 1.000000000000000100E-005 ), #132, 'distance_accuracy_value', 'NONE');
#156 = UNCERTAINTY_MEASURE_WITH_UNIT (LENGTH_MEASURE( 1.000000000000000100E-005 ), #188, 'distance_accuracy_value', 'NONE');
#157 = CIRCLE ( 'NONE', #199, 25.39999999999999900 ) ;
#158 = MECHANICAL_DESIGN_GEOMETRIC_PRESENTATION_REPRESENTATION (  '', ( #160 ), #162 ) ;
#159 = PRESENTATION_LAYER_ASSIGNMENT (  '', '', ( #160 ) ) ;
#160 = STYLED_ITEM ( 'NONE', ( #161 ), #296 ) ;
#161 = PRESENTATION_STYLE_ASSIGNMENT (( #189 ) ) ;
#162 =( GEOMETRIC_REPRESENTATION_CONTEXT ( 3 ) GLOBAL_UNCERTAINTY_ASSIGNED_CONTEXT ( ( #169 ) ) GLOBAL_UNIT_ASSIGNED_CONTEXT ( ( #182, #193, #170 ) ) REPRESENTATION_CONTEXT ( 'NONE', 'WORKASPACE' ) );
#163 = CARTESIAN_POINT ( 'NONE',  ( 0.0000000000000000000, 0.0000000000000000000, -281.0909468956086200 ) ) ;
#164 =( GEOMETRIC_REPRESENTATION_CONTEXT ( 3 ) GLOBAL_UNCERTAINTY_ASSIGNED_CONTEXT ( ( #156 ) ) GLOBAL_UNIT_ASSIGNED_CONTEXT ( ( #188, #181, #165 ) ) REPRESENTATION_CONTEXT ( 'NONE', 'WORKASPACE' ) );
#165 =( NAMED_UNIT ( * ) SI_UNIT ( $, .STERADIAN. ) SOLID_ANGLE_UNIT ( ) );
#166 = SPHERICAL_SURFACE ( 'NONE', #173, 279.1200000000000000 ) ;
#167 = CARTESIAN_POINT ( 'NONE',  ( 0.0000000000000000000, 0.0000000000000000000, 9.484156859232379900 ) ) ;
#168 = CYLINDRICAL_SURFACE ( 'NONE', #180, 25.39999999999999900 ) ;
#169 = UNCERTAINTY_MEASURE_WITH_UNIT (LENGTH_MEASURE( 1.000000000000000100E-005 ), #182, 'distance_accuracy_value', 'NONE');
#170 =( NAMED_UNIT ( * ) SI_UNIT ( $, .STERADIAN. ) SOLID_ANGLE_UNIT ( ) );
#171 = DIRECTION ( 'NONE',  ( 0.0000000000000000000, 1.000000000000000000, 0.0000000000000000000 ) ) ;
#172 = DIRECTION ( 'NONE',  ( -1.000000000000000000, 0.0000000000000000000, 0.0000000000000000000 ) ) ;
#173 = AXIS2_PLACEMENT_3D ( 'NONE', #163, #172, #171 ) ;
#174 = FILL_AREA_STYLE_COLOUR ( '', #175 ) ;
#175 = COLOUR_RGB ( '',0.9568627450980391500, 0.9490196078431372100, 0.9607843137254902200 ) ;
#176 = DIRECTION ( 'NONE',  ( 1.000000000000000000, 0.0000000000000000000, 0.0000000000000000000 ) ) ;
#177 = DIRECTION ( 'NONE',  ( -0.0000000000000000000, -0.0000000000000000000, 1.000000000000000000 ) ) ;
#178 = DIRECTION ( 'NONE',  ( 1.000000000000000000, 0.0000000000000000000, 0.0000000000000000000 ) ) ;
#179 = DIRECTION ( 'NONE',  ( -0.0000000000000000000, -0.0000000000000000000, 1.000000000000000000 ) ) ;
#180 = AXIS2_PLACEMENT_3D ( 'NONE', #167, #179, #178 ) ;
#181 =( NAMED_UNIT ( * ) PLANE_ANGLE_UNIT ( ) SI_UNIT ( $, .RADIAN. ) );
#182 =( LENGTH_UNIT ( ) NAMED_UNIT ( * ) SI_UNIT ( .MILLI., .METRE. ) );
#183 = PRESENTATION_LAYER_ASSIGNMENT (  '', '', ( #195 ) ) ;
#184 = DIRECTION ( 'NONE',  ( 1.000000000000000000, 0.0000000000000000000, 0.0000000000000000000 ) ) ;
#185 = DIRECTION ( 'NONE',  ( -0.0000000000000000000, -0.0000000000000000000, 1.000000000000000000 ) ) ;
#186 = CARTESIAN_POINT ( 'NONE',  ( 0.0000000000000000000, 0.0000000000000000000, -0.1478147148780816800 ) ) ;
#187 = AXIS2_PLACEMENT_3D ( 'NONE', #186, #185, #184 ) ;
#188 =( LENGTH_UNIT ( ) NAMED_UNIT ( * ) SI_UNIT ( .MILLI., .METRE. ) );
#189 = SURFACE_STYLE_USAGE ( .BOTH. , #190 ) ;
#190 = SURFACE_SIDE_STYLE ('',( #191 ) ) ;
#191 = SURFACE_STYLE_FILL_AREA ( #192 ) ;
#192 = FILL_AREA_STYLE ('',( #174 ) ) ;
#193 =( NAMED_UNIT ( * ) PLANE_ANGLE_UNIT ( ) SI_UNIT ( $, .RADIAN. ) );
#194 = CIRCLE ( 'NONE', #187, 25.39999999999999900 ) ;
#195 = STYLED_ITEM ( 'NONE', ( #217 ), #312 ) ;
#196 = PRESENTATION_LAYER_ASSIGNMENT (  '', '', ( #201 ) ) ;
#197 = MECHANICAL_DESIGN_GEOMETRIC_PRESENTATION_REPRESENTATION (  '', ( #201 ), #164 ) ;
#198 = CARTESIAN_POINT ( 'NONE',  ( 0.0000000000000000000, 0.0000000000000000000, -0.1478147148780816800 ) ) ;
#199 = AXIS2_PLACEMENT_3D ( 'NONE', #198, #177, #176 ) ;
#200 = FACE_OUTER_BOUND ( 'NONE', #297, .T. ) ;
#201 = STYLED_ITEM ( 'NONE', ( #81 ), #290 ) ;
#202 = AXIS2_PLACEMENT_3D ( 'NONE', #216, #215, #214 ) ;
#203 = FILL_AREA_STYLE ('',( #204 ) ) ;
#204 = FILL_AREA_STYLE_COLOUR ( '', #205 ) ;
#205 = COLOUR_RGB ( '',0.9568627450980391500, 0.9490196078431372100, 0.9607843137254902200 ) ;
#206 = CARTESIAN_POINT ( 'NONE',  ( -3.110500138708838600E-015, -25.40000000000000200, -0.1478147148780894800 ) ) ;
#207 = DIRECTION ( 'NONE',  ( -1.224606353822377300E-016, -1.000000000000000000, 0.0000000000000000000 ) ) ;
#208 = AXIS2_PLACEMENT_3D ( 'NONE', #209, #213, #207 ) ;
#209 = CARTESIAN_POINT ( 'NONE',  ( 0.0000000000000000000, 0.0000000000000000000, -96.95094689560868100 ) ) ;
#210 = CIRCLE ( 'NONE', #208, 100.0800000000000000 ) ;
#211 = CIRCLE ( 'NONE', #202, 25.39999999999999900 ) ;
#212 = FACE_OUTER_BOUND ( 'NONE', #313, .T. ) ;
#213 = DIRECTION ( 'NONE',  ( -1.000000000000000000, 1.224606353822377300E-016, 0.0000000000000000000 ) ) ;
#214 = DIRECTION ( 'NONE',  ( 1.000000000000000000, 0.0000000000000000000, 0.0000000000000000000 ) ) ;
#215 = DIRECTION ( 'NONE',  ( -0.0000000000000000000, -0.0000000000000000000, 1.000000000000000000 ) ) ;
#216 = CARTESIAN_POINT ( 'NONE',  ( 0.0000000000000000000, 0.0000000000000000000, -3.129053104391321700 ) ) ;
#217 = PRESENTATION_STYLE_ASSIGNMENT (( #218 ) ) ;
#218 = SURFACE_STYLE_USAGE ( .BOTH. , #219 ) ;
#219 = SURFACE_SIDE_STYLE ('',( #220 ) ) ;
#220 = SURFACE_STYLE_FILL_AREA ( #203 ) ;
#221 =( NAMED_UNIT ( * ) PLANE_ANGLE_UNIT ( ) SI_UNIT ( $, .RADIAN. ) );
#222 =( GEOMETRIC_REPRESENTATION_CONTEXT ( 3 ) GLOBAL_UNCERTAINTY_ASSIGNED_CONTEXT ( ( #230 ) ) GLOBAL_UNIT_ASSIGNED_CONTEXT ( ( #247, #253, #231 ) ) REPRESENTATION_CONTEXT ( 'NONE', 'WORKASPACE' ) );
#223 = AXIS2_PLACEMENT_3D ( 'NONE', #237, #254, #257 ) ;
#224 = CIRCLE ( 'NONE', #223, 279.1200000000000000 ) ;
#225 =( GEOMETRIC_REPRESENTATION_CONTEXT ( 3 ) GLOBAL_UNCERTAINTY_ASSIGNED_CONTEXT ( ( #249 ) ) GLOBAL_UNIT_ASSIGNED_CONTEXT ( ( #228, #221, #255 ) ) REPRESENTATION_CONTEXT ( 'NONE', 'WORKASPACE' ) );
#226 =( GEOMETRIC_REPRESENTATION_CONTEXT ( 3 ) GLOBAL_UNCERTAINTY_ASSIGNED_CONTEXT ( ( #234 ) ) GLOBAL_UNIT_ASSIGNED_CONTEXT ( ( #229, #236, #235 ) ) REPRESENTATION_CONTEXT ( 'NONE', 'WORKASPACE' ) );
#227 = CARTESIAN_POINT ( 'NONE',  ( 25.39999999999999900, 0.0000000000000000000, -3.129053104391321700 ) ) ;
#228 =( LENGTH_UNIT ( ) NAMED_UNIT ( * ) SI_UNIT ( .MILLI., .METRE. ) );
#229 =( LENGTH_UNIT ( ) NAMED_UNIT ( * ) SI_UNIT ( .MILLI., .METRE. ) );
#230 = UNCERTAINTY_MEASURE_WITH_UNIT (LENGTH_MEASURE( 1.000000000000000100E-005 ), #247, 'distance_accuracy_value', 'NONE');
#231 =( NAMED_UNIT ( * ) SI_UNIT ( $, .STERADIAN. ) SOLID_ANGLE_UNIT ( ) );
#232 = SPHERICAL_SURFACE ( 'NONE', #259, 279.1200000000000000 ) ;
#233 = MECHANICAL_DESIGN_GEOMETRIC_PRESENTATION_REPRESENTATION (  '', ( #195 ), #225 ) ;
#234 = UNCERTAINTY_MEASURE_WITH_UNIT (LENGTH_MEASURE( 1.000000000000000100E-005 ), #229, 'distance_accuracy_value', 'NONE');
#235 =( NAMED_UNIT ( * ) SI_UNIT ( $, .STERADIAN. ) SOLID_ANGLE_UNIT ( ) );
#236 =( NAMED_UNIT ( * ) PLANE_ANGLE_UNIT ( ) SI_UNIT ( $, .RADIAN. ) );
#237 = CARTESIAN_POINT ( 'NONE',  ( 0.0000000000000000000, 0.0000000000000000000, -281.0909468956086200 ) ) ;
#238 = DIRECTION ( 'NONE',  ( 0.0000000000000000000, 1.000000000000000000, 0.0000000000000000000 ) ) ;
#239 = DIRECTION ( 'NONE',  ( -1.000000000000000000, 0.0000000000000000000, 0.0000000000000000000 ) ) ;
#240 = MECHANICAL_DESIGN_GEOMETRIC_PRESENTATION_REPRESENTATION (  '', ( #242 ), #226 ) ;
#241 = PRESENTATION_LAYER_ASSIGNMENT (  '', '', ( #242 ) ) ;
#242 = STYLED_ITEM ( 'NONE', ( #243 ), #248 ) ;
#243 = PRESENTATION_STYLE_ASSIGNMENT (( #244 ) ) ;
#244 = SURFACE_STYLE_USAGE ( .BOTH. , #245 ) ;
#245 = SURFACE_SIDE_STYLE ('',( #246 ) ) ;
#246 = SURFACE_STYLE_FILL_AREA ( #250 ) ;
#247 =( LENGTH_UNIT ( ) NAMED_UNIT ( * ) SI_UNIT ( .MILLI., .METRE. ) );
#248 = ADVANCED_BREP_SHAPE_REPRESENTATION ( '4864-E0W', ( #289, #261 ), #222 ) ;
#249 = UNCERTAINTY_MEASURE_WITH_UNIT (LENGTH_MEASURE( 1.000000000000000100E-005 ), #228, 'distance_accuracy_value', 'NONE');
#250 = FILL_AREA_STYLE ('',( #251 ) ) ;
#251 = FILL_AREA_STYLE_COLOUR ( '', #252 ) ;
#252 = COLOUR_RGB ( '',0.7960784313725489700, 0.8235294117647058400, 0.9372549019607843100 ) ;
#253 =( NAMED_UNIT ( * ) PLANE_ANGLE_UNIT ( ) SI_UNIT ( $, .RADIAN. ) );
#254 = DIRECTION ( 'NONE',  ( -1.000000000000000000, 1.224606353822377300E-016, 0.0000000000000000000 ) ) ;
#255 =( NAMED_UNIT ( * ) SI_UNIT ( $, .STERADIAN. ) SOLID_ANGLE_UNIT ( ) );
#256 = CARTESIAN_POINT ( 'NONE',  ( 0.0000000000000000000, 6.127930194527175800E-015, 3.129053104391321700 ) ) ;
#257 = DIRECTION ( 'NONE',  ( -1.224606353822377300E-016, -1.000000000000000000, 0.0000000000000000000 ) ) ;
#258 = CARTESIAN_POINT ( 'NONE',  ( 0.0000000000000000000, 0.0000000000000000000, -281.0909468956086200 ) ) ;
#259 = AXIS2_PLACEMENT_3D ( 'NONE', #258, #239, #238 ) ;
#260 = CARTESIAN_POINT ( 'NONE',  ( 0.0000000000000000000, 0.0000000000000000000, 0.0000000000000000000 ) ) ;
#261 = AXIS2_PLACEMENT_3D ( 'NONE', #260, #263, #262 ) ;
#262 = DIRECTION ( 'NONE',  ( 1.000000000000000000, 0.0000000000000000000, 0.0000000000000000000 ) ) ;
#263 = DIRECTION ( 'NONE',  ( 0.0000000000000000000, 0.0000000000000000000, 1.000000000000000000 ) ) ;
#264 = APPLICATION_PROTOCOL_DEFINITION ( 'draft international standard', 'automotive_design', 1998, #265 ) ;
#265 = APPLICATION_CONTEXT ( 'automotive_design' ) ;
#266 = PRODUCT ( '4864-E0W', '4864-E0W', '', ( #267 ) ) ;
#267 = PRODUCT_CONTEXT ( 'NONE', #269, 'mechanical' ) ;
#268 = APPLICATION_PROTOCOL_DEFINITION ( 'draft international standard', 'automotive_design', 1998, #269 ) ;
#269 = APPLICATION_CONTEXT ( 'automotive_design' ) ;
#270 = ADVANCED_FACE ( 'NONE', ( #85 ), #105, .T. ) ;
#271 = ORIENTED_EDGE ( 'NONE', *, *, #283, .T. ) ;
#272 = ORIENTED_EDGE ( 'NONE', *, *, #273, .T. ) ;
#273 = EDGE_CURVE ( 'NONE', #281, #274, #99, .T. ) ;
#274 = VERTEX_POINT ( 'NONE', #88 ) ;
#275 = ORIENTED_EDGE ( 'NONE', *, *, #276, .T. ) ;
#276 = EDGE_CURVE ( 'NONE', #274, #12, #117, .T. ) ;
#277 = EDGE_CURVE ( 'NONE', #15, #318, #31, .T. ) ;
#278 = ADVANCED_FACE ( 'NONE', ( #122 ), #150, .T. ) ;
#279 = EDGE_LOOP ( 'NONE', ( #280, #292, #294, #295 ) ) ;
#280 = ORIENTED_EDGE ( 'NONE', *, *, #302, .F. ) ;
#281 = VERTEX_POINT ( 'NONE', #146 ) ;
#282 = ORIENTED_EDGE ( 'NONE', *, *, #283, .F. ) ;
#283 = EDGE_CURVE ( 'NONE', #315, #281, #128, .T. ) ;
#284 = EDGE_LOOP ( 'NONE', ( #271, #272, #275, #13, #17, #16 ) ) ;
#285 = ORIENTED_EDGE ( 'NONE', *, *, #307, .F. ) ;
#286 = ORIENTED_EDGE ( 'NONE', *, *, #273, .F. ) ;
#287 = ORIENTED_EDGE ( 'NONE', *, *, #19, .T. ) ;
#288 = CLOSED_SHELL ( 'NONE', ( #290, #270, #1, #278, #296, #312 ) ) ;
#289 = MANIFOLD_SOLID_BREP ( 'NONE', #288 ) ;
#290 = ADVANCED_FACE ( 'NONE', ( #79 ), #166, .F. ) ;
#291 = EDGE_LOOP ( 'NONE', ( #23, #316, #22, #282 ) ) ;
#292 = ORIENTED_EDGE ( 'NONE', *, *, #293, .T. ) ;
#293 = EDGE_CURVE ( 'NONE', #300, #11, #157, .T. ) ;
#294 = ORIENTED_EDGE ( 'NONE', *, *, #10, .T. ) ;
#295 = ORIENTED_EDGE ( 'NONE', *, *, #277, .T. ) ;
#296 = ADVANCED_FACE ( 'NONE', ( #200 ), #168, .T. ) ;
#297 = EDGE_LOOP ( 'NONE', ( #298, #306, #308, #309, #310, #311 ) ) ;
#298 = ORIENTED_EDGE ( 'NONE', *, *, #276, .F. ) ;
#299 = EDGE_CURVE ( 'NONE', #12, #300, #194, .T. ) ;
#300 = VERTEX_POINT ( 'NONE', #206 ) ;
#301 = ORIENTED_EDGE ( 'NONE', *, *, #302, .T. ) ;
#302 = EDGE_CURVE ( 'NONE', #300, #318, #210, .T. ) ;
#303 = PRODUCT_DEFINITION_FORMATION_WITH_SPECIFIED_SOURCE ( 'ANY', '', #266, .NOT_KNOWN. ) ;
#304 = PRODUCT_DEFINITION ( 'UNKNOWN', '', #303, #305 ) ;
#305 = PRODUCT_DEFINITION_CONTEXT ( 'detailed design', #265, 'design' ) ;
#306 = ORIENTED_EDGE ( 'NONE', *, *, #307, .T. ) ;
#307 = EDGE_CURVE ( 'NONE', #274, #24, #211, .T. ) ;
#308 = ORIENTED_EDGE ( 'NONE', *, *, #21, .T. ) ;
#309 = ORIENTED_EDGE ( 'NONE', *, *, #9, .T. ) ;
#310 = ORIENTED_EDGE ( 'NONE', *, *, #293, .F. ) ;
#311 = ORIENTED_EDGE ( 'NONE', *, *, #299, .F. ) ;
#312 = ADVANCED_FACE ( 'NONE', ( #212 ), #232, .F. ) ;
#313 = EDGE_LOOP ( 'NONE', ( #314, #285, #286, #287 ) ) ;
#314 = ORIENTED_EDGE ( 'NONE', *, *, #317, .F. ) ;
#315 = VERTEX_POINT ( 'NONE', #227 ) ;
#316 = ORIENTED_EDGE ( 'NONE', *, *, #317, .T. ) ;
#317 = EDGE_CURVE ( 'NONE', #24, #18, #224, .T. ) ;
#318 = VERTEX_POINT ( 'NONE', #256 ) ;
#319 = ORIENTED_EDGE ( 'NONE', *, *, #277, .F. ) ;
#320 = PRODUCT_DEFINITION_SHAPE ( 'NONE', 'NONE',  #304 ) ;
#321 = SHAPE_DEFINITION_REPRESENTATION ( #320, #248 ) ;
#322 = PRODUCT_RELATED_PRODUCT_CATEGORY ( 'part', '', ( #266 ) ) ;
ENDSEC;
END-ISO-10303-21;
