ISO-10303-21;
HEADER;
FILE_DESCRIPTION (( 'STEP AP203' ),
    '1' );
FILE_NAME ('Web Model 43366_20633.step',
    '2022-03-15T18:06:48',
    ( '' ),
    ( '' ),
    'SwSTEP 2.0',
    'SolidWorks 2021',
    '' );
FILE_SCHEMA (( 'CONFIG_CONTROL_DESIGN' ));
ENDSEC;

DATA;
#1 = PRODUCT_DEFINITION_FORMATION_WITH_SPECIFIED_SOURCE ( 'ANY', '', #78, .NOT_KNOWN. ) ;
#2 = LINE ( 'NONE', #147, #107 ) ;
#3 = DIRECTION ( 'NONE',  ( 1.000000000000000000, 0.000000000000000000, -0.000000000000000000 ) ) ;
#4 = CALENDAR_DATE ( 2022, 15, 3 ) ;
#5 = DATE_AND_TIME ( #68, #167 ) ;
#6 = APPROVAL ( #7, 'UNSPECIFIED' ) ;
#7 = APPROVAL_STATUS ( 'not_yet_approved' ) ;
#8 = FACE_OUTER_BOUND ( 'NONE', #115, .T. ) ;
#9 = APPROVAL ( #163, 'UNSPECIFIED' ) ;
#10 = CIRCLE ( 'NONE', #82, 5.000000000000000000 ) ;
#11 =( NAMED_UNIT ( * ) PLANE_ANGLE_UNIT ( ) SI_UNIT ( $, .RADIAN. ) );
#12 =( LENGTH_UNIT ( ) NAMED_UNIT ( * ) SI_UNIT ( .MILLI., .METRE. ) );
#13 = DATE_TIME_ROLE ( 'creation_date' ) ;
#14 = APPROVAL_PERSON_ORGANIZATION ( #96, #52, #98 ) ;
#15 = APPROVAL_ROLE ( '' ) ;
#16 = COORDINATED_UNIVERSAL_TIME_OFFSET ( 5, 0, .BEHIND. ) ;
#17 = DIRECTION ( 'NONE',  ( 0.000000000000000000, 0.000000000000000000, 1.000000000000000000 ) ) ;
#18 = VERTEX_POINT ( 'NONE', #22 ) ;
#19 = VECTOR ( 'NONE', #27, 1000.000000000000000 ) ;
#20 = PRODUCT_RELATED_PRODUCT_CATEGORY ( 'detail', '', ( #78 ) ) ;
#21 = ADVANCED_FACE ( 'NONE', ( #171 ), #118, .T. ) ;
#22 = CARTESIAN_POINT ( 'NONE',  ( -5.000000000000000000, 0.000000000000000000, 0.5000000000000000000 ) ) ;
#23 = ORIENTED_EDGE ( 'NONE', *, *, #153, .F. ) ;
#24 = CC_DESIGN_APPROVAL ( #9, ( #159 ) ) ;
#25 = DIRECTION ( 'NONE',  ( 0.000000000000000000, 0.000000000000000000, 1.000000000000000000 ) ) ;
#26 = DIRECTION ( 'NONE',  ( 0.000000000000000000, 0.000000000000000000, 1.000000000000000000 ) ) ;
#27 = DIRECTION ( 'NONE',  ( -0.000000000000000000, -0.000000000000000000, -1.000000000000000000 ) ) ;
#28 = APPROVAL_DATE_TIME ( #151, #52 ) ;
#29 = PERSON_AND_ORGANIZATION_ROLE ( 'creator' ) ;
#30 = DIRECTION ( 'NONE',  ( 1.000000000000000000, 0.000000000000000000, 0.000000000000000000 ) ) ;
#31 = SHAPE_DEFINITION_REPRESENTATION ( #143, #95 ) ;
#32 = ORIENTED_EDGE ( 'NONE', *, *, #153, .T. ) ;
#33 = DESIGN_CONTEXT ( 'detailed design', #90, 'design' ) ;
#34 = CC_DESIGN_PERSON_AND_ORGANIZATION_ASSIGNMENT ( #86, #111, ( #1 ) ) ;
#35 = ORIENTED_EDGE ( 'NONE', *, *, #138, .F. ) ;
#36 = CARTESIAN_POINT ( 'NONE',  ( 0.000000000000000000, 0.000000000000000000, 0.5000000000000000000 ) ) ;
#37 = DIRECTION ( 'NONE',  ( 1.000000000000000000, 0.000000000000000000, 0.000000000000000000 ) ) ;
#38 = CARTESIAN_POINT ( 'NONE',  ( 0.000000000000000000, 0.000000000000000000, 0.000000000000000000 ) ) ;
#39 = ADVANCED_FACE ( 'NONE', ( #8 ), #99, .T. ) ;
#40 = CARTESIAN_POINT ( 'NONE',  ( 0.000000000000000000, 0.000000000000000000, 0.000000000000000000 ) ) ;
#41 = CIRCLE ( 'NONE', #157, 5.000000000000000000 ) ;
#42 = COORDINATED_UNIVERSAL_TIME_OFFSET ( 5, 0, .BEHIND. ) ;
#43 = CARTESIAN_POINT ( 'NONE',  ( 0.000000000000000000, 0.000000000000000000, 0.5000000000000000000 ) ) ;
#44 = PERSON_AND_ORGANIZATION ( #62, #50 ) ;
#45 = SECURITY_CLASSIFICATION ( '', '', #106 ) ;
#46 = DATE_TIME_ROLE ( 'classification_date' ) ;
#47 = EDGE_CURVE ( 'NONE', #89, #112, #10, .T. ) ;
#48 = LOCAL_TIME ( 14, 6, 48.00000000000000000, #94 ) ;
#49 = ORIENTED_EDGE ( 'NONE', *, *, #47, .T. ) ;
#50 = ORGANIZATION ( 'UNSPECIFIED', 'UNSPECIFIED', '' ) ;
#51 = CARTESIAN_POINT ( 'NONE',  ( 0.000000000000000000, 0.000000000000000000, 0.5000000000000000000 ) ) ;
#52 = APPROVAL ( #148, 'UNSPECIFIED' ) ;
#53 = DIRECTION ( 'NONE',  ( -0.000000000000000000, -0.000000000000000000, -1.000000000000000000 ) ) ;
#54 = DATE_AND_TIME ( #69, #75 ) ;
#55 = APPROVAL_ROLE ( '' ) ;
#56 = PERSON_AND_ORGANIZATION_ROLE ( 'creator' ) ;
#57 = CC_DESIGN_SECURITY_CLASSIFICATION ( #45, ( #1 ) ) ;
#58 = AXIS2_PLACEMENT_3D ( 'NONE', #38, #80, #131 ) ;
#59 = DIRECTION ( 'NONE',  ( 0.000000000000000000, 0.000000000000000000, 1.000000000000000000 ) ) ;
#60 = ORIENTED_EDGE ( 'NONE', *, *, #138, .T. ) ;
#61 = CLOSED_SHELL ( 'NONE', ( #21, #121, #39, #132 ) ) ;
#62 = PERSON ( 'UNSPECIFIED', 'UNSPECIFIED', 'UNSPECIFIED', ('UNSPECIFIED'), ('UNSPECIFIED'), ('UNSPECIFIED') ) ;
#63 = CARTESIAN_POINT ( 'NONE',  ( 5.000000000000000000, 6.123233995736766282E-16, 0.000000000000000000 ) ) ;
#64 = CC_DESIGN_DATE_AND_TIME_ASSIGNMENT ( #136, #13, ( #159 ) ) ;
#65 = LOCAL_TIME ( 14, 6, 48.00000000000000000, #16 ) ;
#66 = PERSON_AND_ORGANIZATION_ROLE ( 'classification_officer' ) ;
#67 = DIRECTION ( 'NONE',  ( 0.000000000000000000, 0.000000000000000000, 1.000000000000000000 ) ) ;
#68 = CALENDAR_DATE ( 2022, 15, 3 ) ;
#69 = CALENDAR_DATE ( 2022, 15, 3 ) ;
#70 = EDGE_CURVE ( 'NONE', #18, #129, #175, .T. ) ;
#71 = COORDINATED_UNIVERSAL_TIME_OFFSET ( 5, 0, .BEHIND. ) ;
#72 = AXIS2_PLACEMENT_3D ( 'NONE', #104, #119, #162 ) ;
#73 = DIRECTION ( 'NONE',  ( 1.000000000000000000, 0.000000000000000000, 0.000000000000000000 ) ) ;
#74 = UNCERTAINTY_MEASURE_WITH_UNIT (LENGTH_MEASURE( 1.000000000000000082E-05 ), #12, 'distance_accuracy_value', 'NONE');
#75 = LOCAL_TIME ( 14, 6, 48.00000000000000000, #150 ) ;
#76 = ORIENTED_EDGE ( 'NONE', *, *, #70, .F. ) ;
#77 = DIRECTION ( 'NONE',  ( -0.000000000000000000, -0.000000000000000000, -1.000000000000000000 ) ) ;
#78 = PRODUCT ( 'Web Model 43366_20633', 'Web Model 43366_20633', '', ( #97 ) ) ;
#79 = DIRECTION ( 'NONE',  ( 0.000000000000000000, 0.000000000000000000, 1.000000000000000000 ) ) ;
#80 = DIRECTION ( 'NONE',  ( 0.000000000000000000, 0.000000000000000000, 1.000000000000000000 ) ) ;
#81 = CC_DESIGN_PERSON_AND_ORGANIZATION_ASSIGNMENT ( #44, #56, ( #1 ) ) ;
#82 = AXIS2_PLACEMENT_3D ( 'NONE', #139, #17, #73 ) ;
#83 = DIRECTION ( 'NONE',  ( 1.000000000000000000, 0.000000000000000000, 0.000000000000000000 ) ) ;
#84 = CALENDAR_DATE ( 2022, 15, 3 ) ;
#85 = PERSON_AND_ORGANIZATION ( #62, #50 ) ;
#86 = PERSON_AND_ORGANIZATION ( #62, #50 ) ;
#87 = PERSON_AND_ORGANIZATION ( #62, #50 ) ;
#88 = ORIENTED_EDGE ( 'NONE', *, *, #116, .T. ) ;
#89 = VERTEX_POINT ( 'NONE', #160 ) ;
#90 = APPLICATION_CONTEXT ( 'configuration controlled 3d designs of mechanical parts and assemblies' ) ;
#91 = FACE_OUTER_BOUND ( 'NONE', #113, .T. ) ;
#92 = APPLICATION_PROTOCOL_DEFINITION ( 'international standard', 'config_control_design', 1994, #128 ) ;
#93 = AXIS2_PLACEMENT_3D ( 'NONE', #36, #77, #127 ) ;
#94 = COORDINATED_UNIVERSAL_TIME_OFFSET ( 5, 0, .BEHIND. ) ;
#95 = ADVANCED_BREP_SHAPE_REPRESENTATION ( 'Web Model 43366_20633', ( #103, #140 ), #165 ) ;
#96 = PERSON_AND_ORGANIZATION ( #62, #50 ) ;
#97 = MECHANICAL_CONTEXT ( 'NONE', #128, 'mechanical' ) ;
#98 = APPROVAL_ROLE ( '' ) ;
#99 = PLANE ( 'NONE',  #110 ) ;
#100 = EDGE_LOOP ( 'NONE', ( #142, #32, #88, #35 ) ) ;
#101 = AXIS2_PLACEMENT_3D ( 'NONE', #40, #26, #3 ) ;
#102 = ORIENTED_EDGE ( 'NONE', *, *, #70, .T. ) ;
#103 = MANIFOLD_SOLID_BREP ( 'Boss-Extrude1', #61 ) ;
#104 = CARTESIAN_POINT ( 'NONE',  ( 0.000000000000000000, 0.000000000000000000, 0.5000000000000000000 ) ) ;
#105 = CC_DESIGN_PERSON_AND_ORGANIZATION_ASSIGNMENT ( #87, #109, ( #78 ) ) ;
#106 = SECURITY_CLASSIFICATION_LEVEL ( 'unclassified' ) ;
#107 = VECTOR ( 'NONE', #53, 1000.000000000000000 ) ;
#108 = CC_DESIGN_PERSON_AND_ORGANIZATION_ASSIGNMENT ( #135, #29, ( #159 ) ) ;
#109 = PERSON_AND_ORGANIZATION_ROLE ( 'design_owner' ) ;
#110 = AXIS2_PLACEMENT_3D ( 'NONE', #141, #59, #155 ) ;
#111 = PERSON_AND_ORGANIZATION_ROLE ( 'design_supplier' ) ;
#112 = VERTEX_POINT ( 'NONE', #63 ) ;
#113 = EDGE_LOOP ( 'NONE', ( #173, #156 ) ) ;
#114 = CC_DESIGN_DATE_AND_TIME_ASSIGNMENT ( #123, #46, ( #45 ) ) ;
#115 = EDGE_LOOP ( 'NONE', ( #102, #158 ) ) ;
#116 = EDGE_CURVE ( 'NONE', #112, #89, #133, .T. ) ;
#117 = APPROVAL_PERSON_ORGANIZATION ( #85, #6, #15 ) ;
#118 = CYLINDRICAL_SURFACE ( 'NONE', #93, 5.000000000000000000 ) ;
#119 = DIRECTION ( 'NONE',  ( -0.000000000000000000, -0.000000000000000000, -1.000000000000000000 ) ) ;
#120 = APPROVAL_PERSON_ORGANIZATION ( #125, #9, #55 ) ;
#121 = ADVANCED_FACE ( 'NONE', ( #161 ), #149, .T. ) ;
#122 = CC_DESIGN_APPROVAL ( #52, ( #45 ) ) ;
#123 = DATE_AND_TIME ( #84, #48 ) ;
#124 = CALENDAR_DATE ( 2022, 15, 3 ) ;
#125 = PERSON_AND_ORGANIZATION ( #62, #50 ) ;
#126 = CARTESIAN_POINT ( 'NONE',  ( 0.000000000000000000, 0.000000000000000000, 0.000000000000000000 ) ) ;
#127 = DIRECTION ( 'NONE',  ( -1.000000000000000000, 0.000000000000000000, 0.000000000000000000 ) ) ;
#128 = APPLICATION_CONTEXT ( 'configuration controlled 3d designs of mechanical parts and assemblies' ) ;
#129 = VERTEX_POINT ( 'NONE', #134 ) ;
#130 =( NAMED_UNIT ( * ) SI_UNIT ( $, .STERADIAN. ) SOLID_ANGLE_UNIT ( ) );
#131 = DIRECTION ( 'NONE',  ( 1.000000000000000000, 0.000000000000000000, 0.000000000000000000 ) ) ;
#132 = ADVANCED_FACE ( 'NONE', ( #91 ), #146, .F. ) ;
#133 = CIRCLE ( 'NONE', #58, 5.000000000000000000 ) ;
#134 = CARTESIAN_POINT ( 'NONE',  ( 5.000000000000000000, 6.123233995736766282E-16, 0.5000000000000000000 ) ) ;
#135 = PERSON_AND_ORGANIZATION ( #62, #50 ) ;
#136 = DATE_AND_TIME ( #4, #65 ) ;
#137 = APPLICATION_PROTOCOL_DEFINITION ( 'international standard', 'config_control_design', 1994, #90 ) ;
#138 = EDGE_CURVE ( 'NONE', #18, #89, #2, .T. ) ;
#139 = CARTESIAN_POINT ( 'NONE',  ( 0.000000000000000000, 0.000000000000000000, 0.000000000000000000 ) ) ;
#140 = AXIS2_PLACEMENT_3D ( 'NONE', #126, #67, #30 ) ;
#141 = CARTESIAN_POINT ( 'NONE',  ( 0.000000000000000000, 0.000000000000000000, 0.5000000000000000000 ) ) ;
#142 = ORIENTED_EDGE ( 'NONE', *, *, #169, .F. ) ;
#143 = PRODUCT_DEFINITION_SHAPE ( 'NONE', 'NONE',  #159 ) ;
#144 = CARTESIAN_POINT ( 'NONE',  ( 5.000000000000000000, 6.123233995736766282E-16, 0.5000000000000000000 ) ) ;
#145 = CC_DESIGN_PERSON_AND_ORGANIZATION_ASSIGNMENT ( #152, #66, ( #45 ) ) ;
#146 = PLANE ( 'NONE',  #101 ) ;
#147 = CARTESIAN_POINT ( 'NONE',  ( -5.000000000000000000, 0.000000000000000000, 0.5000000000000000000 ) ) ;
#148 = APPROVAL_STATUS ( 'not_yet_approved' ) ;
#149 = CYLINDRICAL_SURFACE ( 'NONE', #72, 5.000000000000000000 ) ;
#150 = COORDINATED_UNIVERSAL_TIME_OFFSET ( 5, 0, .BEHIND. ) ;
#151 = DATE_AND_TIME ( #124, #174 ) ;
#152 = PERSON_AND_ORGANIZATION ( #62, #50 ) ;
#153 = EDGE_CURVE ( 'NONE', #129, #112, #164, .T. ) ;
#154 = CC_DESIGN_APPROVAL ( #6, ( #1 ) ) ;
#155 = DIRECTION ( 'NONE',  ( 1.000000000000000000, 0.000000000000000000, -0.000000000000000000 ) ) ;
#156 = ORIENTED_EDGE ( 'NONE', *, *, #116, .F. ) ;
#157 = AXIS2_PLACEMENT_3D ( 'NONE', #43, #25, #37 ) ;
#158 = ORIENTED_EDGE ( 'NONE', *, *, #169, .T. ) ;
#159 = PRODUCT_DEFINITION ( 'UNKNOWN', '', #1, #33 ) ;
#160 = CARTESIAN_POINT ( 'NONE',  ( -5.000000000000000000, 0.000000000000000000, 0.000000000000000000 ) ) ;
#161 = FACE_OUTER_BOUND ( 'NONE', #172, .T. ) ;
#162 = DIRECTION ( 'NONE',  ( -1.000000000000000000, 0.000000000000000000, 0.000000000000000000 ) ) ;
#163 = APPROVAL_STATUS ( 'not_yet_approved' ) ;
#164 = LINE ( 'NONE', #144, #19 ) ;
#165 =( GEOMETRIC_REPRESENTATION_CONTEXT ( 3 ) GLOBAL_UNCERTAINTY_ASSIGNED_CONTEXT ( ( #74 ) ) GLOBAL_UNIT_ASSIGNED_CONTEXT ( ( #12, #11, #130 ) ) REPRESENTATION_CONTEXT ( 'NONE', 'WORKASPACE' ) );
#166 = APPROVAL_DATE_TIME ( #54, #9 ) ;
#167 = LOCAL_TIME ( 14, 6, 48.00000000000000000, #71 ) ;
#168 = AXIS2_PLACEMENT_3D ( 'NONE', #51, #79, #83 ) ;
#169 = EDGE_CURVE ( 'NONE', #129, #18, #41, .T. ) ;
#170 = APPROVAL_DATE_TIME ( #5, #6 ) ;
#171 = FACE_OUTER_BOUND ( 'NONE', #100, .T. ) ;
#172 = EDGE_LOOP ( 'NONE', ( #23, #76, #60, #49 ) ) ;
#173 = ORIENTED_EDGE ( 'NONE', *, *, #47, .F. ) ;
#174 = LOCAL_TIME ( 14, 6, 48.00000000000000000, #42 ) ;
#175 = CIRCLE ( 'NONE', #168, 5.000000000000000000 ) ;
ENDSEC;
END-ISO-10303-21;
