ISO-10303-21;
HEADER;
FILE_DESCRIPTION (( 'STEP AP214' ),
    '1' );
FILE_NAME ('4843-E0W.STEP',
    '2009-12-21T17:09:59',
    ( ' ' ),
    ( ' ' ),
    'SwSTEP 2.0',
    'SolidWorks 2009',
    '' );
FILE_SCHEMA (( 'AUTOMOTIVE_DESIGN' ));
ENDSEC;

DATA;
#1 = DIRECTION ( 'NONE',  ( 1.000000000000000000, 0.0000000000000000000, 0.0000000000000000000 ) ) ;
#2 = AXIS2_PLACEMENT_3D ( 'NONE', #169, #168, #167 ) ;
#3 = CYLINDRICAL_SURFACE ( 'NONE', #2, 25.39999999999999900 ) ;
#4 =( GEOMETRIC_REPRESENTATION_CONTEXT ( 3 ) GLOBAL_UNCERTAINTY_ASSIGNED_CONTEXT ( ( #5 ) ) GLOBAL_UNIT_ASSIGNED_CONTEXT ( ( #8, #7, #6 ) ) REPRESENTATION_CONTEXT ( 'NONE', 'WORKASPACE' ) );
#5 = UNCERTAINTY_MEASURE_WITH_UNIT (LENGTH_MEASURE( 1.000000000000000100E-005 ), #8, 'distance_accuracy_value', 'NONE');
#6 =( NAMED_UNIT ( * ) SI_UNIT ( $, .STERADIAN. ) SOLID_ANGLE_UNIT ( ) );
#7 =( NAMED_UNIT ( * ) PLANE_ANGLE_UNIT ( ) SI_UNIT ( $, .RADIAN. ) );
#8 =( LENGTH_UNIT ( ) NAMED_UNIT ( * ) SI_UNIT ( .MILLI., .METRE. ) );
#9 = MECHANICAL_DESIGN_GEOMETRIC_PRESENTATION_REPRESENTATION (  '', ( #11 ), #4 ) ;
#10 = PRESENTATION_LAYER_ASSIGNMENT (  '', '', ( #11 ) ) ;
#11 = STYLED_ITEM ( 'NONE', ( #12 ), #54 ) ;
#12 = PRESENTATION_STYLE_ASSIGNMENT (( #13 ) ) ;
#13 = SURFACE_STYLE_USAGE ( .BOTH. , #14 ) ;
#14 = SURFACE_SIDE_STYLE ('',( #15 ) ) ;
#15 = SURFACE_STYLE_FILL_AREA ( #16 ) ;
#16 = FILL_AREA_STYLE ('',( #17 ) ) ;
#17 = FILL_AREA_STYLE_COLOUR ( '', #18 ) ;
#18 = COLOUR_RGB ( '',0.9568627450980391500, 0.9490196078431372100, 0.9607843137254902200 ) ;
#19 = DIRECTION ( 'NONE',  ( 1.000000000000000000, 0.0000000000000000000, 0.0000000000000000000 ) ) ;
#20 = DIRECTION ( 'NONE',  ( -0.0000000000000000000, -0.0000000000000000000, 1.000000000000000000 ) ) ;
#21 = CARTESIAN_POINT ( 'NONE',  ( 0.0000000000000000000, 0.0000000000000000000, -5.012413850473230100 ) ) ;
#22 = AXIS2_PLACEMENT_3D ( 'NONE', #21, #20, #19 ) ;
#23 = CIRCLE ( 'NONE', #22, 25.39999999999999900 ) ;
#24 = FACE_OUTER_BOUND ( 'NONE', #55, .T. ) ;
#25 = CARTESIAN_POINT ( 'NONE',  ( -25.39999999999999900, 3.110500138708838200E-015, -2.282015913238034000 ) ) ;
#26 = DIRECTION ( 'NONE',  ( -0.0000000000000000000, -0.0000000000000000000, 1.000000000000000000 ) ) ;
#27 = VECTOR ( 'NONE', #26, 1000.000000000000000 ) ;
#28 = CARTESIAN_POINT ( 'NONE',  ( -25.39999999999999900, 3.110500138708838200E-015, 10.27251760531428300 ) ) ;
#29 = LINE ( 'NONE', #28, #27 ) ;
#30 = CARTESIAN_POINT ( 'NONE',  ( -25.39999999999999900, 3.110500138708838200E-015, -5.012413850473230100 ) ) ;
#31 = DIRECTION ( 'NONE',  ( 1.000000000000000000, 0.0000000000000000000, 0.0000000000000000000 ) ) ;
#32 = ORIENTED_EDGE ( 'NONE', *, *, #57, .F. ) ;
#33 = ORIENTED_EDGE ( 'NONE', *, *, #178, .F. ) ;
#34 = ORIENTED_EDGE ( 'NONE', *, *, #194, .T. ) ;
#35 = ADVANCED_FACE ( 'NONE', ( #146 ), #67, .F. ) ;
#36 = EDGE_LOOP ( 'NONE', ( #40, #38, #39, #147 ) ) ;
#37 = ORIENTED_EDGE ( 'NONE', *, *, #183, .T. ) ;
#38 = ORIENTED_EDGE ( 'NONE', *, *, #53, .F. ) ;
#39 = ORIENTED_EDGE ( 'NONE', *, *, #46, .F. ) ;
#40 = ORIENTED_EDGE ( 'NONE', *, *, #202, .F. ) ;
#41 = VERTEX_POINT ( 'NONE', #66 ) ;
#42 = VERTEX_POINT ( 'NONE', #141 ) ;
#43 = MANIFOLD_SOLID_BREP ( 'NONE', #148 ) ;
#44 = ADVANCED_FACE ( 'NONE', ( #125 ), #87, .F. ) ;
#45 = ORIENTED_EDGE ( 'NONE', *, *, #46, .T. ) ;
#46 = EDGE_CURVE ( 'NONE', #200, #47, #86, .T. ) ;
#47 = VERTEX_POINT ( 'NONE', #30 ) ;
#48 = ORIENTED_EDGE ( 'NONE', *, *, #49, .T. ) ;
#49 = EDGE_CURVE ( 'NONE', #47, #50, #29, .T. ) ;
#50 = VERTEX_POINT ( 'NONE', #25 ) ;
#51 = ORIENTED_EDGE ( 'NONE', *, *, #57, .T. ) ;
#52 = ORIENTED_EDGE ( 'NONE', *, *, #49, .F. ) ;
#53 = EDGE_CURVE ( 'NONE', #47, #41, #23, .T. ) ;
#54 = ADVANCED_FACE ( 'NONE', ( #24 ), #3, .T. ) ;
#55 = EDGE_LOOP ( 'NONE', ( #52, #58, #34, #37, #32, #33 ) ) ;
#56 = ORIENTED_EDGE ( 'NONE', *, *, #188, .T. ) ;
#57 = EDGE_CURVE ( 'NONE', #180, #190, #170, .T. ) ;
#58 = ORIENTED_EDGE ( 'NONE', *, *, #53, .T. ) ;
#59 = ORIENTED_EDGE ( 'NONE', *, *, #171, .T. ) ;
#60 = ORIENTED_EDGE ( 'NONE', *, *, #175, .F. ) ;
#61 = ORIENTED_EDGE ( 'NONE', *, *, #171, .F. ) ;
#62 = DIRECTION ( 'NONE',  ( 0.0000000000000000000, 1.000000000000000000, 0.0000000000000000000 ) ) ;
#63 = DIRECTION ( 'NONE',  ( -1.000000000000000000, 0.0000000000000000000, 0.0000000000000000000 ) ) ;
#64 = CARTESIAN_POINT ( 'NONE',  ( 0.0000000000000000000, 0.0000000000000000000, -121.5975861495267600 ) ) ;
#65 = AXIS2_PLACEMENT_3D ( 'NONE', #64, #63, #62 ) ;
#66 = CARTESIAN_POINT ( 'NONE',  ( -3.110500138708839300E-015, -25.40000000000000600, -5.012413850473222100 ) ) ;
#67 = SPHERICAL_SURFACE ( 'NONE', #65, 119.3199999999999900 ) ;
#68 =( GEOMETRIC_REPRESENTATION_CONTEXT ( 3 ) GLOBAL_UNCERTAINTY_ASSIGNED_CONTEXT ( ( #69 ) ) GLOBAL_UNIT_ASSIGNED_CONTEXT ( ( #72, #71, #70 ) ) REPRESENTATION_CONTEXT ( 'NONE', 'WORKASPACE' ) );
#69 = UNCERTAINTY_MEASURE_WITH_UNIT (LENGTH_MEASURE( 1.000000000000000100E-005 ), #72, 'distance_accuracy_value', 'NONE');
#70 =( NAMED_UNIT ( * ) SI_UNIT ( $, .STERADIAN. ) SOLID_ANGLE_UNIT ( ) );
#71 =( NAMED_UNIT ( * ) PLANE_ANGLE_UNIT ( ) SI_UNIT ( $, .RADIAN. ) );
#72 =( LENGTH_UNIT ( ) NAMED_UNIT ( * ) SI_UNIT ( .MILLI., .METRE. ) );
#73 = MECHANICAL_DESIGN_GEOMETRIC_PRESENTATION_REPRESENTATION (  '', ( #75 ), #68 ) ;
#74 = PRESENTATION_LAYER_ASSIGNMENT (  '', '', ( #75 ) ) ;
#75 = STYLED_ITEM ( 'NONE', ( #76 ), #35 ) ;
#76 = PRESENTATION_STYLE_ASSIGNMENT (( #77 ) ) ;
#77 = SURFACE_STYLE_USAGE ( .BOTH. , #78 ) ;
#78 = SURFACE_SIDE_STYLE ('',( #142 ) ) ;
#79 = DIRECTION ( 'NONE',  ( -0.0000000000000000000, -0.0000000000000000000, 1.000000000000000000 ) ) ;
#80 = CARTESIAN_POINT ( 'NONE',  ( 0.0000000000000000000, 0.0000000000000000000, -5.012413850473230100 ) ) ;
#81 = AXIS2_PLACEMENT_3D ( 'NONE', #80, #79, #31 ) ;
#82 = DIRECTION ( 'NONE',  ( 0.0000000000000000000, 1.000000000000000000, 0.0000000000000000000 ) ) ;
#83 = DIRECTION ( 'NONE',  ( -1.000000000000000000, 0.0000000000000000000, 0.0000000000000000000 ) ) ;
#84 = CARTESIAN_POINT ( 'NONE',  ( 0.0000000000000000000, 0.0000000000000000000, -121.5975861495267600 ) ) ;
#85 = AXIS2_PLACEMENT_3D ( 'NONE', #84, #83, #82 ) ;
#86 = CIRCLE ( 'NONE', #81, 25.39999999999999900 ) ;
#87 = SPHERICAL_SURFACE ( 'NONE', #85, 119.3199999999999900 ) ;
#88 =( GEOMETRIC_REPRESENTATION_CONTEXT ( 3 ) GLOBAL_UNCERTAINTY_ASSIGNED_CONTEXT ( ( #89 ) ) GLOBAL_UNIT_ASSIGNED_CONTEXT ( ( #92, #91, #90 ) ) REPRESENTATION_CONTEXT ( 'NONE', 'WORKASPACE' ) );
#89 = UNCERTAINTY_MEASURE_WITH_UNIT (LENGTH_MEASURE( 1.000000000000000100E-005 ), #92, 'distance_accuracy_value', 'NONE');
#90 =( NAMED_UNIT ( * ) SI_UNIT ( $, .STERADIAN. ) SOLID_ANGLE_UNIT ( ) );
#91 =( NAMED_UNIT ( * ) PLANE_ANGLE_UNIT ( ) SI_UNIT ( $, .RADIAN. ) );
#92 =( LENGTH_UNIT ( ) NAMED_UNIT ( * ) SI_UNIT ( .MILLI., .METRE. ) );
#93 = MECHANICAL_DESIGN_GEOMETRIC_PRESENTATION_REPRESENTATION (  '', ( #95 ), #88 ) ;
#94 = PRESENTATION_LAYER_ASSIGNMENT (  '', '', ( #95 ) ) ;
#95 = STYLED_ITEM ( 'NONE', ( #118 ), #44 ) ;
#96 = DIRECTION ( 'NONE',  ( -0.0000000000000000000, -0.0000000000000000000, 1.000000000000000000 ) ) ;
#97 = CARTESIAN_POINT ( 'NONE',  ( 0.0000000000000000000, 0.0000000000000000000, -2.282015913238034000 ) ) ;
#98 = AXIS2_PLACEMENT_3D ( 'NONE', #97, #96, #1 ) ;
#99 = CIRCLE ( 'NONE', #98, 25.39999999999999900 ) ;
#100 = CARTESIAN_POINT ( 'NONE',  ( 0.0000000000000000000, 2.931095307873860000E-015, 5.012413850473226500 ) ) ;
#101 = DIRECTION ( 'NONE',  ( -1.224606353822377300E-016, -1.000000000000000000, 0.0000000000000000000 ) ) ;
#102 = DIRECTION ( 'NONE',  ( -1.000000000000000000, 1.224606353822377300E-016, 0.0000000000000000000 ) ) ;
#103 = CARTESIAN_POINT ( 'NONE',  ( 0.0000000000000000000, 0.0000000000000000000, -42.85758614952676700 ) ) ;
#104 = AXIS2_PLACEMENT_3D ( 'NONE', #103, #102, #101 ) ;
#105 = DIRECTION ( 'NONE',  ( 0.0000000000000000000, 1.000000000000000000, 0.0000000000000000000 ) ) ;
#106 = DIRECTION ( 'NONE',  ( -1.000000000000000000, 0.0000000000000000000, 0.0000000000000000000 ) ) ;
#107 = CARTESIAN_POINT ( 'NONE',  ( 0.0000000000000000000, 0.0000000000000000000, -42.85758614952676700 ) ) ;
#108 = AXIS2_PLACEMENT_3D ( 'NONE', #107, #106, #105 ) ;
#109 = CIRCLE ( 'NONE', #104, 47.86999999999999700 ) ;
#110 = SPHERICAL_SURFACE ( 'NONE', #108, 47.86999999999999700 ) ;
#111 =( GEOMETRIC_REPRESENTATION_CONTEXT ( 3 ) GLOBAL_UNCERTAINTY_ASSIGNED_CONTEXT ( ( #112 ) ) GLOBAL_UNIT_ASSIGNED_CONTEXT ( ( #115, #114, #113 ) ) REPRESENTATION_CONTEXT ( 'NONE', 'WORKASPACE' ) );
#112 = UNCERTAINTY_MEASURE_WITH_UNIT (LENGTH_MEASURE( 1.000000000000000100E-005 ), #115, 'distance_accuracy_value', 'NONE');
#113 =( NAMED_UNIT ( * ) SI_UNIT ( $, .STERADIAN. ) SOLID_ANGLE_UNIT ( ) );
#114 =( NAMED_UNIT ( * ) PLANE_ANGLE_UNIT ( ) SI_UNIT ( $, .RADIAN. ) );
#115 =( LENGTH_UNIT ( ) NAMED_UNIT ( * ) SI_UNIT ( .MILLI., .METRE. ) );
#116 = MECHANICAL_DESIGN_GEOMETRIC_PRESENTATION_REPRESENTATION (  '', ( #149 ), #111 ) ;
#117 = PRESENTATION_LAYER_ASSIGNMENT (  '', '', ( #149 ) ) ;
#118 = PRESENTATION_STYLE_ASSIGNMENT (( #119 ) ) ;
#119 = SURFACE_STYLE_USAGE ( .BOTH. , #120 ) ;
#120 = SURFACE_SIDE_STYLE ('',( #121 ) ) ;
#121 = SURFACE_STYLE_FILL_AREA ( #122 ) ;
#122 = FILL_AREA_STYLE ('',( #123 ) ) ;
#123 = FILL_AREA_STYLE_COLOUR ( '', #124 ) ;
#124 = COLOUR_RGB ( '',0.9568627450980391500, 0.9490196078431372100, 0.9607843137254902200 ) ;
#125 = FACE_OUTER_BOUND ( 'NONE', #204, .T. ) ;
#126 =( GEOMETRIC_REPRESENTATION_CONTEXT ( 3 ) GLOBAL_UNCERTAINTY_ASSIGNED_CONTEXT ( ( #127 ) ) GLOBAL_UNIT_ASSIGNED_CONTEXT ( ( #130, #129, #128 ) ) REPRESENTATION_CONTEXT ( 'NONE', 'WORKASPACE' ) );
#127 = UNCERTAINTY_MEASURE_WITH_UNIT (LENGTH_MEASURE( 1.000000000000000100E-005 ), #130, 'distance_accuracy_value', 'NONE');
#128 =( NAMED_UNIT ( * ) SI_UNIT ( $, .STERADIAN. ) SOLID_ANGLE_UNIT ( ) );
#129 =( NAMED_UNIT ( * ) PLANE_ANGLE_UNIT ( ) SI_UNIT ( $, .RADIAN. ) );
#130 =( LENGTH_UNIT ( ) NAMED_UNIT ( * ) SI_UNIT ( .MILLI., .METRE. ) );
#131 = MECHANICAL_DESIGN_GEOMETRIC_PRESENTATION_REPRESENTATION (  '', ( #133 ), #126 ) ;
#132 = PRESENTATION_LAYER_ASSIGNMENT (  '', '', ( #133 ) ) ;
#133 = STYLED_ITEM ( 'NONE', ( #134 ), #43 ) ;
#134 = PRESENTATION_STYLE_ASSIGNMENT (( #135 ) ) ;
#135 = SURFACE_STYLE_USAGE ( .BOTH. , #136 ) ;
#136 = SURFACE_SIDE_STYLE ('',( #137 ) ) ;
#137 = SURFACE_STYLE_FILL_AREA ( #138 ) ;
#138 = FILL_AREA_STYLE ('',( #139 ) ) ;
#139 = FILL_AREA_STYLE_COLOUR ( '', #140 ) ;
#140 = COLOUR_RGB ( '',0.7960784313725489700, 0.8235294117647058400, 0.9372549019607843100 ) ;
#141 = CARTESIAN_POINT ( 'NONE',  ( 25.39999999999999900, 0.0000000000000000000, -5.012413850473230100 ) ) ;
#142 = SURFACE_STYLE_FILL_AREA ( #143 ) ;
#143 = FILL_AREA_STYLE ('',( #144 ) ) ;
#144 = FILL_AREA_STYLE_COLOUR ( '', #145 ) ;
#145 = COLOUR_RGB ( '',0.9568627450980391500, 0.9490196078431372100, 0.9607843137254902200 ) ;
#146 = FACE_OUTER_BOUND ( 'NONE', #36, .T. ) ;
#147 = ORIENTED_EDGE ( 'NONE', *, *, #199, .T. ) ;
#148 = CLOSED_SHELL ( 'NONE', ( #44, #195, #181, #172, #54, #35 ) ) ;
#149 = STYLED_ITEM ( 'NONE', ( #150 ), #172 ) ;
#150 = PRESENTATION_STYLE_ASSIGNMENT (( #151 ) ) ;
#151 = SURFACE_STYLE_USAGE ( .BOTH. , #152 ) ;
#152 = SURFACE_SIDE_STYLE ('',( #153 ) ) ;
#153 = SURFACE_STYLE_FILL_AREA ( #154 ) ;
#154 = FILL_AREA_STYLE ('',( #162 ) ) ;
#155 = COLOUR_RGB ( '',0.9568627450980391500, 0.9490196078431372100, 0.9607843137254902200 ) ;
#156 = FACE_OUTER_BOUND ( 'NONE', #173, .T. ) ;
#157 = DIRECTION ( 'NONE',  ( 0.0000000000000000000, 0.0000000000000000000, -1.000000000000000000 ) ) ;
#158 = DIRECTION ( 'NONE',  ( 1.000000000000000000, 0.0000000000000000000, 0.0000000000000000000 ) ) ;
#159 = CARTESIAN_POINT ( 'NONE',  ( 0.0000000000000000000, 0.0000000000000000000, -42.85758614952676700 ) ) ;
#160 = AXIS2_PLACEMENT_3D ( 'NONE', #159, #158, #157 ) ;
#161 = CIRCLE ( 'NONE', #160, 47.86999999999999700 ) ;
#162 = FILL_AREA_STYLE_COLOUR ( '', #155 ) ;
#163 = DIRECTION ( 'NONE',  ( 1.000000000000000000, 0.0000000000000000000, 0.0000000000000000000 ) ) ;
#164 = DIRECTION ( 'NONE',  ( -0.0000000000000000000, -0.0000000000000000000, 1.000000000000000000 ) ) ;
#165 = CARTESIAN_POINT ( 'NONE',  ( 0.0000000000000000000, 0.0000000000000000000, -2.282015913238034000 ) ) ;
#166 = AXIS2_PLACEMENT_3D ( 'NONE', #165, #164, #163 ) ;
#167 = DIRECTION ( 'NONE',  ( 1.000000000000000000, 0.0000000000000000000, 0.0000000000000000000 ) ) ;
#168 = DIRECTION ( 'NONE',  ( -0.0000000000000000000, -0.0000000000000000000, 1.000000000000000000 ) ) ;
#169 = CARTESIAN_POINT ( 'NONE',  ( 0.0000000000000000000, 0.0000000000000000000, 10.27251760531428300 ) ) ;
#170 = CIRCLE ( 'NONE', #166, 25.39999999999999900 ) ;
#171 = EDGE_CURVE ( 'NONE', #186, #176, #161, .T. ) ;
#172 = ADVANCED_FACE ( 'NONE', ( #156 ), #110, .T. ) ;
#173 = EDGE_LOOP ( 'NONE', ( #60, #51, #56, #59 ) ) ;
#174 = ORIENTED_EDGE ( 'NONE', *, *, #175, .T. ) ;
#175 = EDGE_CURVE ( 'NONE', #180, #176, #109, .T. ) ;
#176 = VERTEX_POINT ( 'NONE', #100 ) ;
#177 = ORIENTED_EDGE ( 'NONE', *, *, #178, .T. ) ;
#178 = EDGE_CURVE ( 'NONE', #50, #180, #99, .T. ) ;
#179 = ORIENTED_EDGE ( 'NONE', *, *, #189, .T. ) ;
#180 = VERTEX_POINT ( 'NONE', #241 ) ;
#181 = ADVANCED_FACE ( 'NONE', ( #240 ), #224, .T. ) ;
#182 = ORIENTED_EDGE ( 'NONE', *, *, #183, .F. ) ;
#183 = EDGE_CURVE ( 'NONE', #42, #190, #219, .T. ) ;
#184 = EDGE_LOOP ( 'NONE', ( #179, #177, #174, #61 ) ) ;
#185 = ORIENTED_EDGE ( 'NONE', *, *, #188, .F. ) ;
#186 = VERTEX_POINT ( 'NONE', #215 ) ;
#187 = ORIENTED_EDGE ( 'NONE', *, *, #189, .F. ) ;
#188 = EDGE_CURVE ( 'NONE', #190, #186, #321, .T. ) ;
#189 = EDGE_CURVE ( 'NONE', #186, #50, #316, .T. ) ;
#190 = VERTEX_POINT ( 'NONE', #312 ) ;
#191 = ORIENTED_EDGE ( 'NONE', *, *, #192, .F. ) ;
#192 = EDGE_CURVE ( 'NONE', #42, #200, #310, .T. ) ;
#193 = EDGE_LOOP ( 'NONE', ( #196, #45, #48, #187, #185, #182 ) ) ;
#194 = EDGE_CURVE ( 'NONE', #41, #42, #304, .T. ) ;
#195 = ADVANCED_FACE ( 'NONE', ( #300 ), #285, .T. ) ;
#196 = ORIENTED_EDGE ( 'NONE', *, *, #192, .T. ) ;
#197 = ORIENTED_EDGE ( 'NONE', *, *, #194, .F. ) ;
#198 = ORIENTED_EDGE ( 'NONE', *, *, #199, .F. ) ;
#199 = EDGE_CURVE ( 'NONE', #200, #203, #284, .T. ) ;
#200 = VERTEX_POINT ( 'NONE', #275 ) ;
#201 = ORIENTED_EDGE ( 'NONE', *, *, #202, .T. ) ;
#202 = EDGE_CURVE ( 'NONE', #41, #203, #274, .T. ) ;
#203 = VERTEX_POINT ( 'NONE', #269 ) ;
#204 = EDGE_LOOP ( 'NONE', ( #197, #201, #198, #191 ) ) ;
#205 = PRODUCT_DEFINITION_SHAPE ( 'NONE', 'NONE',  #208 ) ;
#206 = PRODUCT_RELATED_PRODUCT_CATEGORY ( 'part', '', ( #212 ) ) ;
#207 = PRODUCT_DEFINITION_FORMATION_WITH_SPECIFIED_SOURCE ( 'ANY', '', #212, .NOT_KNOWN. ) ;
#208 = PRODUCT_DEFINITION ( 'UNKNOWN', '', #207, #209 ) ;
#209 = PRODUCT_DEFINITION_CONTEXT ( 'detailed design', #211, 'design' ) ;
#210 = APPLICATION_PROTOCOL_DEFINITION ( 'draft international standard', 'automotive_design', 1998, #211 ) ;
#211 = APPLICATION_CONTEXT ( 'automotive_design' ) ;
#212 = PRODUCT ( '4843-E0W', '4843-E0W', '', ( #213 ) ) ;
#213 = PRODUCT_CONTEXT ( 'NONE', #260, 'mechanical' ) ;
#214 = APPLICATION_PROTOCOL_DEFINITION ( 'draft international standard', 'automotive_design', 1998, #260 ) ;
#215 = CARTESIAN_POINT ( 'NONE',  ( 0.0000000000000000000, 25.39999999999999100, -2.282015913238033100 ) ) ;
#216 = DIRECTION ( 'NONE',  ( -0.0000000000000000000, -0.0000000000000000000, 1.000000000000000000 ) ) ;
#217 = VECTOR ( 'NONE', #216, 1000.000000000000000 ) ;
#218 = CARTESIAN_POINT ( 'NONE',  ( 25.39999999999999900, 0.0000000000000000000, 10.27251760531428300 ) ) ;
#219 = LINE ( 'NONE', #218, #217 ) ;
#220 = DIRECTION ( 'NONE',  ( 0.0000000000000000000, 1.000000000000000000, 0.0000000000000000000 ) ) ;
#221 = DIRECTION ( 'NONE',  ( -1.000000000000000000, 0.0000000000000000000, 0.0000000000000000000 ) ) ;
#222 = CARTESIAN_POINT ( 'NONE',  ( 0.0000000000000000000, 0.0000000000000000000, -42.85758614952676700 ) ) ;
#223 = AXIS2_PLACEMENT_3D ( 'NONE', #222, #221, #220 ) ;
#224 = SPHERICAL_SURFACE ( 'NONE', #223, 47.86999999999999700 ) ;
#225 =( GEOMETRIC_REPRESENTATION_CONTEXT ( 3 ) GLOBAL_UNCERTAINTY_ASSIGNED_CONTEXT ( ( #226 ) ) GLOBAL_UNIT_ASSIGNED_CONTEXT ( ( #229, #228, #227 ) ) REPRESENTATION_CONTEXT ( 'NONE', 'WORKASPACE' ) );
#226 = UNCERTAINTY_MEASURE_WITH_UNIT (LENGTH_MEASURE( 1.000000000000000100E-005 ), #229, 'distance_accuracy_value', 'NONE');
#227 =( NAMED_UNIT ( * ) SI_UNIT ( $, .STERADIAN. ) SOLID_ANGLE_UNIT ( ) );
#228 =( NAMED_UNIT ( * ) PLANE_ANGLE_UNIT ( ) SI_UNIT ( $, .RADIAN. ) );
#229 =( LENGTH_UNIT ( ) NAMED_UNIT ( * ) SI_UNIT ( .MILLI., .METRE. ) );
#230 = MECHANICAL_DESIGN_GEOMETRIC_PRESENTATION_REPRESENTATION (  '', ( #232 ), #225 ) ;
#231 = PRESENTATION_LAYER_ASSIGNMENT (  '', '', ( #232 ) ) ;
#232 = STYLED_ITEM ( 'NONE', ( #233 ), #181 ) ;
#233 = PRESENTATION_STYLE_ASSIGNMENT (( #234 ) ) ;
#234 = SURFACE_STYLE_USAGE ( .BOTH. , #235 ) ;
#235 = SURFACE_SIDE_STYLE ('',( #236 ) ) ;
#236 = SURFACE_STYLE_FILL_AREA ( #237 ) ;
#237 = FILL_AREA_STYLE ('',( #238 ) ) ;
#238 = FILL_AREA_STYLE_COLOUR ( '', #239 ) ;
#239 = COLOUR_RGB ( '',0.9568627450980391500, 0.9490196078431372100, 0.9607843137254902200 ) ;
#240 = FACE_OUTER_BOUND ( 'NONE', #184, .T. ) ;
#241 = CARTESIAN_POINT ( 'NONE',  ( -3.110500138708837000E-015, -25.39999999999999100, -2.282015913238033100 ) ) ;
#242 = DIRECTION ( 'NONE',  ( 1.000000000000000000, 0.0000000000000000000, 0.0000000000000000000 ) ) ;
#243 = DIRECTION ( 'NONE',  ( 0.0000000000000000000, 0.0000000000000000000, 1.000000000000000000 ) ) ;
#244 = AXIS2_PLACEMENT_3D ( 'NONE', #268, #243, #242 ) ;
#245 =( GEOMETRIC_REPRESENTATION_CONTEXT ( 3 ) GLOBAL_UNCERTAINTY_ASSIGNED_CONTEXT ( ( #246 ) ) GLOBAL_UNIT_ASSIGNED_CONTEXT ( ( #249, #248, #247 ) ) REPRESENTATION_CONTEXT ( 'NONE', 'WORKASPACE' ) );
#246 = UNCERTAINTY_MEASURE_WITH_UNIT (LENGTH_MEASURE( 1.000000000000000100E-005 ), #249, 'distance_accuracy_value', 'NONE');
#247 =( NAMED_UNIT ( * ) SI_UNIT ( $, .STERADIAN. ) SOLID_ANGLE_UNIT ( ) );
#248 =( NAMED_UNIT ( * ) PLANE_ANGLE_UNIT ( ) SI_UNIT ( $, .RADIAN. ) );
#249 =( LENGTH_UNIT ( ) NAMED_UNIT ( * ) SI_UNIT ( .MILLI., .METRE. ) );
#250 = MECHANICAL_DESIGN_GEOMETRIC_PRESENTATION_REPRESENTATION (  '', ( #252 ), #245 ) ;
#251 = PRESENTATION_LAYER_ASSIGNMENT (  '', '', ( #252 ) ) ;
#252 = STYLED_ITEM ( 'NONE', ( #253 ), #262 ) ;
#253 = PRESENTATION_STYLE_ASSIGNMENT (( #254 ) ) ;
#254 = SURFACE_STYLE_USAGE ( .BOTH. , #255 ) ;
#255 = SURFACE_SIDE_STYLE ('',( #256 ) ) ;
#256 = SURFACE_STYLE_FILL_AREA ( #257 ) ;
#257 = FILL_AREA_STYLE ('',( #258 ) ) ;
#258 = FILL_AREA_STYLE_COLOUR ( '', #259 ) ;
#259 = COLOUR_RGB ( '',0.7960784313725489700, 0.8235294117647058400, 0.9372549019607843100 ) ;
#260 = APPLICATION_CONTEXT ( 'automotive_design' ) ;
#261 = SHAPE_DEFINITION_REPRESENTATION ( #205, #262 ) ;
#262 = ADVANCED_BREP_SHAPE_REPRESENTATION ( '4843-E0W', ( #43, #244 ), #263 ) ;
#263 =( GEOMETRIC_REPRESENTATION_CONTEXT ( 3 ) GLOBAL_UNCERTAINTY_ASSIGNED_CONTEXT ( ( #264 ) ) GLOBAL_UNIT_ASSIGNED_CONTEXT ( ( #267, #266, #265 ) ) REPRESENTATION_CONTEXT ( 'NONE', 'WORKASPACE' ) );
#264 = UNCERTAINTY_MEASURE_WITH_UNIT (LENGTH_MEASURE( 1.000000000000000100E-005 ), #267, 'distance_accuracy_value', 'NONE');
#265 =( NAMED_UNIT ( * ) SI_UNIT ( $, .STERADIAN. ) SOLID_ANGLE_UNIT ( ) );
#266 =( NAMED_UNIT ( * ) PLANE_ANGLE_UNIT ( ) SI_UNIT ( $, .RADIAN. ) );
#267 =( LENGTH_UNIT ( ) NAMED_UNIT ( * ) SI_UNIT ( .MILLI., .METRE. ) );
#268 = CARTESIAN_POINT ( 'NONE',  ( 0.0000000000000000000, 0.0000000000000000000, 0.0000000000000000000 ) ) ;
#269 = CARTESIAN_POINT ( 'NONE',  ( 0.0000000000000000000, 7.306001506904302800E-015, -2.277586149526764200 ) ) ;
#270 = DIRECTION ( 'NONE',  ( -1.224606353822377300E-016, -1.000000000000000000, 0.0000000000000000000 ) ) ;
#271 = DIRECTION ( 'NONE',  ( -1.000000000000000000, 1.224606353822377300E-016, 0.0000000000000000000 ) ) ;
#272 = CARTESIAN_POINT ( 'NONE',  ( 0.0000000000000000000, 0.0000000000000000000, -121.5975861495267600 ) ) ;
#273 = AXIS2_PLACEMENT_3D ( 'NONE', #272, #271, #270 ) ;
#274 = CIRCLE ( 'NONE', #273, 119.3199999999999900 ) ;
#275 = CARTESIAN_POINT ( 'NONE',  ( 0.0000000000000000000, 25.40000000000000600, -5.012413850473222100 ) ) ;
#276 = DIRECTION ( 'NONE',  ( 0.0000000000000000000, 0.0000000000000000000, -1.000000000000000000 ) ) ;
#277 = DIRECTION ( 'NONE',  ( 1.000000000000000000, -0.0000000000000000000, 0.0000000000000000000 ) ) ;
#278 = CARTESIAN_POINT ( 'NONE',  ( 0.0000000000000000000, 0.0000000000000000000, -121.5975861495267600 ) ) ;
#279 = AXIS2_PLACEMENT_3D ( 'NONE', #278, #277, #276 ) ;
#280 = DIRECTION ( 'NONE',  ( 1.000000000000000000, 0.0000000000000000000, 0.0000000000000000000 ) ) ;
#281 = DIRECTION ( 'NONE',  ( -0.0000000000000000000, -0.0000000000000000000, 1.000000000000000000 ) ) ;
#282 = CARTESIAN_POINT ( 'NONE',  ( 0.0000000000000000000, 0.0000000000000000000, 10.27251760531428300 ) ) ;
#283 = AXIS2_PLACEMENT_3D ( 'NONE', #282, #281, #280 ) ;
#284 = CIRCLE ( 'NONE', #279, 119.3199999999999800 ) ;
#285 = CYLINDRICAL_SURFACE ( 'NONE', #283, 25.39999999999999900 ) ;
#286 =( GEOMETRIC_REPRESENTATION_CONTEXT ( 3 ) GLOBAL_UNCERTAINTY_ASSIGNED_CONTEXT ( ( #287 ) ) GLOBAL_UNIT_ASSIGNED_CONTEXT ( ( #290, #289, #288 ) ) REPRESENTATION_CONTEXT ( 'NONE', 'WORKASPACE' ) );
#287 = UNCERTAINTY_MEASURE_WITH_UNIT (LENGTH_MEASURE( 1.000000000000000100E-005 ), #290, 'distance_accuracy_value', 'NONE');
#288 =( NAMED_UNIT ( * ) SI_UNIT ( $, .STERADIAN. ) SOLID_ANGLE_UNIT ( ) );
#289 =( NAMED_UNIT ( * ) PLANE_ANGLE_UNIT ( ) SI_UNIT ( $, .RADIAN. ) );
#290 =( LENGTH_UNIT ( ) NAMED_UNIT ( * ) SI_UNIT ( .MILLI., .METRE. ) );
#291 = MECHANICAL_DESIGN_GEOMETRIC_PRESENTATION_REPRESENTATION (  '', ( #293 ), #286 ) ;
#292 = PRESENTATION_LAYER_ASSIGNMENT (  '', '', ( #293 ) ) ;
#293 = STYLED_ITEM ( 'NONE', ( #294 ), #195 ) ;
#294 = PRESENTATION_STYLE_ASSIGNMENT (( #295 ) ) ;
#295 = SURFACE_STYLE_USAGE ( .BOTH. , #296 ) ;
#296 = SURFACE_SIDE_STYLE ('',( #297 ) ) ;
#297 = SURFACE_STYLE_FILL_AREA ( #298 ) ;
#298 = FILL_AREA_STYLE ('',( #305 ) ) ;
#299 = COLOUR_RGB ( '',0.9568627450980391500, 0.9490196078431372100, 0.9607843137254902200 ) ;
#300 = FACE_OUTER_BOUND ( 'NONE', #193, .T. ) ;
#301 = DIRECTION ( 'NONE',  ( 1.000000000000000000, 0.0000000000000000000, 0.0000000000000000000 ) ) ;
#302 = DIRECTION ( 'NONE',  ( -0.0000000000000000000, -0.0000000000000000000, 1.000000000000000000 ) ) ;
#303 = AXIS2_PLACEMENT_3D ( 'NONE', #311, #302, #301 ) ;
#304 = CIRCLE ( 'NONE', #303, 25.39999999999999900 ) ;
#305 = FILL_AREA_STYLE_COLOUR ( '', #299 ) ;
#306 = DIRECTION ( 'NONE',  ( 1.000000000000000000, 0.0000000000000000000, 0.0000000000000000000 ) ) ;
#307 = DIRECTION ( 'NONE',  ( -0.0000000000000000000, -0.0000000000000000000, 1.000000000000000000 ) ) ;
#308 = CARTESIAN_POINT ( 'NONE',  ( 0.0000000000000000000, 0.0000000000000000000, -5.012413850473230100 ) ) ;
#309 = AXIS2_PLACEMENT_3D ( 'NONE', #308, #307, #306 ) ;
#310 = CIRCLE ( 'NONE', #309, 25.39999999999999900 ) ;
#311 = CARTESIAN_POINT ( 'NONE',  ( 0.0000000000000000000, 0.0000000000000000000, -5.012413850473230100 ) ) ;
#312 = CARTESIAN_POINT ( 'NONE',  ( 25.39999999999999900, 0.0000000000000000000, -2.282015913238034000 ) ) ;
#313 = DIRECTION ( 'NONE',  ( 1.000000000000000000, 0.0000000000000000000, 0.0000000000000000000 ) ) ;
#314 = DIRECTION ( 'NONE',  ( -0.0000000000000000000, -0.0000000000000000000, 1.000000000000000000 ) ) ;
#315 = AXIS2_PLACEMENT_3D ( 'NONE', #322, #314, #313 ) ;
#316 = CIRCLE ( 'NONE', #315, 25.39999999999999900 ) ;
#317 = DIRECTION ( 'NONE',  ( 1.000000000000000000, 0.0000000000000000000, 0.0000000000000000000 ) ) ;
#318 = DIRECTION ( 'NONE',  ( -0.0000000000000000000, -0.0000000000000000000, 1.000000000000000000 ) ) ;
#319 = CARTESIAN_POINT ( 'NONE',  ( 0.0000000000000000000, 0.0000000000000000000, -2.282015913238034000 ) ) ;
#320 = AXIS2_PLACEMENT_3D ( 'NONE', #319, #318, #317 ) ;
#321 = CIRCLE ( 'NONE', #320, 25.39999999999999900 ) ;
#322 = CARTESIAN_POINT ( 'NONE',  ( 0.0000000000000000000, 0.0000000000000000000, -2.282015913238034000 ) ) ;
ENDSEC;
END-ISO-10303-21;
