ISO-10303-21;
HEADER;
FILE_DESCRIPTION (( 'STEP AP203' ),
    '1' );
FILE_NAME ('Web Model 48215.STEP',
    '2017-01-31T15:21:15',
    ( '' ),
    ( '' ),
    'SwSTEP 2.0',
    'SolidWorks 2016',
    '' );
FILE_SCHEMA (( 'CONFIG_CONTROL_DESIGN' ));
ENDSEC;

DATA;
#1 = EDGE_LOOP ( 'NONE', ( #138, #121, #96, #110 ) ) ;
#2 = CALENDAR_DATE ( 2017, 31, 1 ) ;
#3 = APPROVAL ( #15, 'UNSPECIFIED' ) ;
#4 = EDGE_LOOP ( 'NONE', ( #66, #36, #145, #46 ) ) ;
#5 = APPROVAL_STATUS ( 'not_yet_approved' ) ;
#6 = CC_DESIGN_APPROVAL ( #169, ( #123 ) ) ;
#7 = CC_DESIGN_PERSON_AND_ORGANIZATION_ASSIGNMENT ( #14, #135, ( #74 ) ) ;
#8 = CYLINDRICAL_SURFACE ( 'NONE', #139, 6.250000000000000000 ) ;
#9 = CC_DESIGN_APPROVAL ( #3, ( #26 ) ) ;
#10 = VERTEX_POINT ( 'NONE', #32 ) ;
#11 = COORDINATED_UNIVERSAL_TIME_OFFSET ( 5, 0, .BEHIND. ) ;
#12 = AXIS2_PLACEMENT_3D ( 'NONE', #111, #137, #149 ) ;
#13 = CC_DESIGN_PERSON_AND_ORGANIZATION_ASSIGNMENT ( #116, #150, ( #123 ) ) ;
#14 = PERSON_AND_ORGANIZATION ( #170, #174 ) ;
#15 = APPROVAL_STATUS ( 'not_yet_approved' ) ;
#16 = EDGE_CURVE ( 'NONE', #81, #113, #30, .T. ) ;
#17 = DIRECTION ( 'NONE',  ( 0.0000000000000000000, 0.0000000000000000000, 1.000000000000000000 ) ) ;
#18 = AXIS2_PLACEMENT_3D ( 'NONE', #22, #35, #20 ) ;
#19 = DATE_AND_TIME ( #117, #48 ) ;
#20 = DIRECTION ( 'NONE',  ( -1.000000000000000000, 0.0000000000000000000, 0.0000000000000000000 ) ) ;
#21 = PLANE ( 'NONE',  #12 ) ;
#22 = CARTESIAN_POINT ( 'NONE',  ( 0.0000000000000000000, 0.0000000000000000000, 3.000000000000000000 ) ) ;
#23 = ORIENTED_EDGE ( 'NONE', *, *, #16, .F. ) ;
#24 = PERSON_AND_ORGANIZATION_ROLE ( 'creator' ) ;
#25 = CALENDAR_DATE ( 2017, 31, 1 ) ;
#26 = SECURITY_CLASSIFICATION ( '', '', #102 ) ;
#27 = AXIS2_PLACEMENT_3D ( 'NONE', #84, #98, #58 ) ;
#28 = PERSON_AND_ORGANIZATION ( #170, #174 ) ;
#29 = CC_DESIGN_PERSON_AND_ORGANIZATION_ASSIGNMENT ( #163, #47, ( #43 ) ) ;
#30 = CIRCLE ( 'NONE', #120, 6.250000000000000000 ) ;
#31 = VERTEX_POINT ( 'NONE', #80 ) ;
#32 = CARTESIAN_POINT ( 'NONE',  ( -6.250000000000000000, 0.0000000000000000000, 3.000000000000000000 ) ) ;
#33 = CARTESIAN_POINT ( 'NONE',  ( 6.250000000000000000, 7.654042494670957600E-016, 3.000000000000000000 ) ) ;
#34 = APPROVAL_DATE_TIME ( #69, #49 ) ;
#35 = DIRECTION ( 'NONE',  ( -0.0000000000000000000, -0.0000000000000000000, -1.000000000000000000 ) ) ;
#36 = ORIENTED_EDGE ( 'NONE', *, *, #141, .F. ) ;
#37 =( GEOMETRIC_REPRESENTATION_CONTEXT ( 3 ) GLOBAL_UNCERTAINTY_ASSIGNED_CONTEXT ( ( #125 ) ) GLOBAL_UNIT_ASSIGNED_CONTEXT ( ( #95, #42, #143 ) ) REPRESENTATION_CONTEXT ( 'NONE', 'WORKASPACE' ) );
#38 = DESIGN_CONTEXT ( 'detailed design', #147, 'design' ) ;
#39 = APPLICATION_CONTEXT ( 'configuration controlled 3d designs of mechanical parts and assemblies' ) ;
#40 = EDGE_CURVE ( 'NONE', #31, #10, #86, .T. ) ;
#41 = FACE_OUTER_BOUND ( 'NONE', #4, .T. ) ;
#42 =( NAMED_UNIT ( * ) PLANE_ANGLE_UNIT ( ) SI_UNIT ( $, .RADIAN. ) );
#43 = PRODUCT_DEFINITION ( 'UNKNOWN', '', #123, #38 ) ;
#44 = VECTOR ( 'NONE', #100, 1000.000000000000000 ) ;
#45 = EDGE_CURVE ( 'NONE', #10, #113, #78, .T. ) ;
#46 = ORIENTED_EDGE ( 'NONE', *, *, #172, .T. ) ;
#47 = PERSON_AND_ORGANIZATION_ROLE ( 'creator' ) ;
#48 = LOCAL_TIME ( 10, 21, 15.00000000000000000, #11 ) ;
#49 = APPROVAL ( #73, 'UNSPECIFIED' ) ;
#50 = PRODUCT_RELATED_PRODUCT_CATEGORY ( 'detail', '', ( #74 ) ) ;
#51 = FACE_OUTER_BOUND ( 'NONE', #162, .T. ) ;
#52 = PERSON_AND_ORGANIZATION ( #170, #174 ) ;
#53 = CC_DESIGN_DATE_AND_TIME_ASSIGNMENT ( #168, #55, ( #26 ) ) ;
#54 = VECTOR ( 'NONE', #57, 1000.000000000000000 ) ;
#55 = DATE_TIME_ROLE ( 'classification_date' ) ;
#56 = EDGE_CURVE ( 'NONE', #31, #81, #160, .T. ) ;
#57 = DIRECTION ( 'NONE',  ( -0.0000000000000000000, -0.0000000000000000000, -1.000000000000000000 ) ) ;
#58 = DIRECTION ( 'NONE',  ( 1.000000000000000000, 0.0000000000000000000, 0.0000000000000000000 ) ) ;
#59 = CIRCLE ( 'NONE', #87, 6.250000000000000000 ) ;
#60 = APPROVAL_ROLE ( '' ) ;
#61 = APPROVAL_PERSON_ORGANIZATION ( #128, #3, #122 ) ;
#62 = CARTESIAN_POINT ( 'NONE',  ( 0.0000000000000000000, 0.0000000000000000000, 0.0000000000000000000 ) ) ;
#63 = DIRECTION ( 'NONE',  ( -0.0000000000000000000, -0.0000000000000000000, -1.000000000000000000 ) ) ;
#64 = MANIFOLD_SOLID_BREP ( 'Boss-Extrude1', #133 ) ;
#65 = ORIENTED_EDGE ( 'NONE', *, *, #172, .F. ) ;
#66 = ORIENTED_EDGE ( 'NONE', *, *, #56, .F. ) ;
#67 = CC_DESIGN_DATE_AND_TIME_ASSIGNMENT ( #91, #154, ( #43 ) ) ;
#68 = PERSON_AND_ORGANIZATION ( #170, #174 ) ;
#69 = DATE_AND_TIME ( #2, #76 ) ;
#70 = CARTESIAN_POINT ( 'NONE',  ( 0.0000000000000000000, 0.0000000000000000000, 3.000000000000000000 ) ) ;
#71 = LOCAL_TIME ( 10, 21, 15.00000000000000000, #144 ) ;
#72 = DIRECTION ( 'NONE',  ( 0.0000000000000000000, 0.0000000000000000000, 1.000000000000000000 ) ) ;
#73 = APPROVAL_STATUS ( 'not_yet_approved' ) ;
#74 = PRODUCT ( 'Web Model 48215', 'Web Model 48215', '', ( #85 ) ) ;
#75 = DIRECTION ( 'NONE',  ( 1.000000000000000000, 0.0000000000000000000, 0.0000000000000000000 ) ) ;
#76 = LOCAL_TIME ( 10, 21, 15.00000000000000000, #93 ) ;
#77 = CC_DESIGN_PERSON_AND_ORGANIZATION_ASSIGNMENT ( #52, #24, ( #123 ) ) ;
#78 = LINE ( 'NONE', #109, #54 ) ;
#79 = DATE_AND_TIME ( #119, #157 ) ;
#80 = CARTESIAN_POINT ( 'NONE',  ( 6.250000000000000000, 7.654042494670957600E-016, 3.000000000000000000 ) ) ;
#81 = VERTEX_POINT ( 'NONE', #173 ) ;
#82 = CARTESIAN_POINT ( 'NONE',  ( 0.0000000000000000000, 0.0000000000000000000, 0.0000000000000000000 ) ) ;
#83 = PERSON_AND_ORGANIZATION ( #170, #174 ) ;
#84 = CARTESIAN_POINT ( 'NONE',  ( 0.0000000000000000000, 0.0000000000000000000, 0.0000000000000000000 ) ) ;
#85 = MECHANICAL_CONTEXT ( 'NONE', #39, 'mechanical' ) ;
#86 = CIRCLE ( 'NONE', #159, 6.250000000000000000 ) ;
#87 = AXIS2_PLACEMENT_3D ( 'NONE', #114, #151, #75 ) ;
#88 = APPROVAL_DATE_TIME ( #19, #169 ) ;
#89 = CALENDAR_DATE ( 2017, 31, 1 ) ;
#90 = CARTESIAN_POINT ( 'NONE',  ( 0.0000000000000000000, 0.0000000000000000000, 0.0000000000000000000 ) ) ;
#91 = DATE_AND_TIME ( #25, #166 ) ;
#92 = ADVANCED_FACE ( 'NONE', ( #51 ), #167, .F. ) ;
#93 = COORDINATED_UNIVERSAL_TIME_OFFSET ( 5, 0, .BEHIND. ) ;
#94 = ADVANCED_BREP_SHAPE_REPRESENTATION ( 'Web Model 48215', ( #64, #115 ), #37 ) ;
#95 =( LENGTH_UNIT ( ) NAMED_UNIT ( * ) SI_UNIT ( .MILLI., .METRE. ) );
#96 = ORIENTED_EDGE ( 'NONE', *, *, #16, .T. ) ;
#97 = DIRECTION ( 'NONE',  ( 1.000000000000000000, 0.0000000000000000000, -0.0000000000000000000 ) ) ;
#98 = DIRECTION ( 'NONE',  ( 0.0000000000000000000, 0.0000000000000000000, 1.000000000000000000 ) ) ;
#99 = CARTESIAN_POINT ( 'NONE',  ( 0.0000000000000000000, 0.0000000000000000000, 3.000000000000000000 ) ) ;
#100 = DIRECTION ( 'NONE',  ( -0.0000000000000000000, -0.0000000000000000000, -1.000000000000000000 ) ) ;
#101 = ORIENTED_EDGE ( 'NONE', *, *, #141, .T. ) ;
#102 = SECURITY_CLASSIFICATION_LEVEL ( 'unclassified' ) ;
#103 = PERSON_AND_ORGANIZATION_ROLE ( 'classification_officer' ) ;
#104 = EDGE_LOOP ( 'NONE', ( #101, #171 ) ) ;
#105 = APPROVAL_PERSON_ORGANIZATION ( #28, #49, #127 ) ;
#106 = DIRECTION ( 'NONE',  ( 0.0000000000000000000, 0.0000000000000000000, 1.000000000000000000 ) ) ;
#107 = ADVANCED_FACE ( 'NONE', ( #132 ), #152, .T. ) ;
#108 = APPROVAL_DATE_TIME ( #79, #3 ) ;
#109 = CARTESIAN_POINT ( 'NONE',  ( -6.250000000000000000, 0.0000000000000000000, 3.000000000000000000 ) ) ;
#110 = ORIENTED_EDGE ( 'NONE', *, *, #45, .F. ) ;
#111 = CARTESIAN_POINT ( 'NONE',  ( 0.0000000000000000000, 0.0000000000000000000, 3.000000000000000000 ) ) ;
#112 = CARTESIAN_POINT ( 'NONE',  ( -6.250000000000000000, 0.0000000000000000000, 0.0000000000000000000 ) ) ;
#113 = VERTEX_POINT ( 'NONE', #112 ) ;
#114 = CARTESIAN_POINT ( 'NONE',  ( 0.0000000000000000000, 0.0000000000000000000, 3.000000000000000000 ) ) ;
#115 = AXIS2_PLACEMENT_3D ( 'NONE', #90, #106, #158 ) ;
#116 = PERSON_AND_ORGANIZATION ( #170, #174 ) ;
#117 = CALENDAR_DATE ( 2017, 31, 1 ) ;
#118 = PRODUCT_DEFINITION_SHAPE ( 'NONE', 'NONE',  #43 ) ;
#119 = CALENDAR_DATE ( 2017, 31, 1 ) ;
#120 = AXIS2_PLACEMENT_3D ( 'NONE', #82, #17, #164 ) ;
#121 = ORIENTED_EDGE ( 'NONE', *, *, #56, .T. ) ;
#122 = APPROVAL_ROLE ( '' ) ;
#123 = PRODUCT_DEFINITION_FORMATION_WITH_SPECIFIED_SOURCE ( 'ANY', '', #74, .NOT_KNOWN. ) ;
#124 = FACE_OUTER_BOUND ( 'NONE', #104, .T. ) ;
#125 = UNCERTAINTY_MEASURE_WITH_UNIT (LENGTH_MEASURE( 1.000000000000000100E-005 ), #95, 'distance_accuracy_value', 'NONE');
#126 = COORDINATED_UNIVERSAL_TIME_OFFSET ( 5, 0, .BEHIND. ) ;
#127 = APPROVAL_ROLE ( '' ) ;
#128 = PERSON_AND_ORGANIZATION ( #170, #174 ) ;
#129 = CC_DESIGN_SECURITY_CLASSIFICATION ( #26, ( #123 ) ) ;
#130 = CIRCLE ( 'NONE', #27, 6.250000000000000000 ) ;
#131 = CC_DESIGN_PERSON_AND_ORGANIZATION_ASSIGNMENT ( #68, #103, ( #26 ) ) ;
#132 = FACE_OUTER_BOUND ( 'NONE', #1, .T. ) ;
#133 = CLOSED_SHELL ( 'NONE', ( #107, #142, #161, #92 ) ) ;
#134 = COORDINATED_UNIVERSAL_TIME_OFFSET ( 5, 0, .BEHIND. ) ;
#135 = PERSON_AND_ORGANIZATION_ROLE ( 'design_owner' ) ;
#136 = AXIS2_PLACEMENT_3D ( 'NONE', #62, #72, #97 ) ;
#137 = DIRECTION ( 'NONE',  ( 0.0000000000000000000, 0.0000000000000000000, 1.000000000000000000 ) ) ;
#138 = ORIENTED_EDGE ( 'NONE', *, *, #40, .F. ) ;
#139 = AXIS2_PLACEMENT_3D ( 'NONE', #99, #63, #153 ) ;
#140 = APPLICATION_PROTOCOL_DEFINITION ( 'international standard', 'config_control_design', 1994, #39 ) ;
#141 = EDGE_CURVE ( 'NONE', #10, #31, #59, .T. ) ;
#142 = ADVANCED_FACE ( 'NONE', ( #41 ), #8, .T. ) ;
#143 =( NAMED_UNIT ( * ) SI_UNIT ( $, .STERADIAN. ) SOLID_ANGLE_UNIT ( ) );
#144 = COORDINATED_UNIVERSAL_TIME_OFFSET ( 5, 0, .BEHIND. ) ;
#145 = ORIENTED_EDGE ( 'NONE', *, *, #45, .T. ) ;
#146 = DIRECTION ( 'NONE',  ( 0.0000000000000000000, 0.0000000000000000000, 1.000000000000000000 ) ) ;
#147 = APPLICATION_CONTEXT ( 'configuration controlled 3d designs of mechanical parts and assemblies' ) ;
#148 = APPLICATION_PROTOCOL_DEFINITION ( 'international standard', 'config_control_design', 1994, #147 ) ;
#149 = DIRECTION ( 'NONE',  ( 1.000000000000000000, 0.0000000000000000000, -0.0000000000000000000 ) ) ;
#150 = PERSON_AND_ORGANIZATION_ROLE ( 'design_supplier' ) ;
#151 = DIRECTION ( 'NONE',  ( 0.0000000000000000000, 0.0000000000000000000, 1.000000000000000000 ) ) ;
#152 = CYLINDRICAL_SURFACE ( 'NONE', #18, 6.250000000000000000 ) ;
#153 = DIRECTION ( 'NONE',  ( -1.000000000000000000, 0.0000000000000000000, 0.0000000000000000000 ) ) ;
#154 = DATE_TIME_ROLE ( 'creation_date' ) ;
#155 = APPROVAL_PERSON_ORGANIZATION ( #83, #169, #60 ) ;
#156 = CC_DESIGN_APPROVAL ( #49, ( #43 ) ) ;
#157 = LOCAL_TIME ( 10, 21, 15.00000000000000000, #134 ) ;
#158 = DIRECTION ( 'NONE',  ( 1.000000000000000000, 0.0000000000000000000, 0.0000000000000000000 ) ) ;
#159 = AXIS2_PLACEMENT_3D ( 'NONE', #70, #146, #165 ) ;
#160 = LINE ( 'NONE', #33, #44 ) ;
#161 = ADVANCED_FACE ( 'NONE', ( #124 ), #21, .T. ) ;
#162 = EDGE_LOOP ( 'NONE', ( #65, #23 ) ) ;
#163 = PERSON_AND_ORGANIZATION ( #170, #174 ) ;
#164 = DIRECTION ( 'NONE',  ( 1.000000000000000000, 0.0000000000000000000, 0.0000000000000000000 ) ) ;
#165 = DIRECTION ( 'NONE',  ( 1.000000000000000000, 0.0000000000000000000, 0.0000000000000000000 ) ) ;
#166 = LOCAL_TIME ( 10, 21, 15.00000000000000000, #126 ) ;
#167 = PLANE ( 'NONE',  #136 ) ;
#168 = DATE_AND_TIME ( #89, #71 ) ;
#169 = APPROVAL ( #5, 'UNSPECIFIED' ) ;
#170 = PERSON ( 'UNSPECIFIED', 'UNSPECIFIED', 'UNSPECIFIED', ('UNSPECIFIED'), ('UNSPECIFIED'), ('UNSPECIFIED') ) ;
#171 = ORIENTED_EDGE ( 'NONE', *, *, #40, .T. ) ;
#172 = EDGE_CURVE ( 'NONE', #113, #81, #130, .T. ) ;
#173 = CARTESIAN_POINT ( 'NONE',  ( 6.250000000000000000, 7.654042494670957600E-016, 0.0000000000000000000 ) ) ;
#174 = ORGANIZATION ( 'UNSPECIFIED', 'UNSPECIFIED', '' ) ;
#175 = SHAPE_DEFINITION_REPRESENTATION ( #118, #94 ) ;
ENDSEC;
END-ISO-10303-21;
