ISO-10303-21;
HEADER;
FILE_DESCRIPTION (( 'STEP AP203' ),
    '1' );
FILE_NAME ('Web Model 47126_48573.step',
    '2017-06-06T16:55:16',
    ( '' ),
    ( '' ),
    'SwSTEP 2.0',
    'SolidWorks 2016',
    '' );
FILE_SCHEMA (( 'CONFIG_CONTROL_DESIGN' ));
ENDSEC;

DATA;
#1 = ORIENTED_EDGE ( 'NONE', *, *, #116, .T. ) ;
#2 = PERSON_AND_ORGANIZATION ( #128, #55 ) ;
#3 = ORIENTED_EDGE ( 'NONE', *, *, #48, .T. ) ;
#4 = LINE ( 'NONE', #251, #118 ) ;
#5 = EDGE_LOOP ( 'NONE', ( #176, #69, #51, #169 ) ) ;
#6 = CARTESIAN_POINT ( 'NONE',  ( -10.00000000000000000, -10.00000000000000000, -10.00000000000000000 ) ) ;
#7 = PLANE ( 'NONE',  #52 ) ;
#8 = ADVANCED_FACE ( 'NONE', ( #24 ), #254, .F. ) ;
#9 = APPROVAL ( #237, 'UNSPECIFIED' ) ;
#10 = EDGE_CURVE ( 'NONE', #299, #218, #75, .T. ) ;
#11 = DIRECTION ( 'NONE',  ( 0.0000000000000000000, 0.0000000000000000000, 1.000000000000000000 ) ) ;
#12 = CARTESIAN_POINT ( 'NONE',  ( 10.00000000000000000, -10.00000000000000000, 10.00000000000000000 ) ) ;
#13 = DIRECTION ( 'NONE',  ( 0.7071067811865474600, -0.7071067811865474600, 0.0000000000000000000 ) ) ;
#14 = ORIENTED_EDGE ( 'NONE', *, *, #102, .T. ) ;
#15 = CARTESIAN_POINT ( 'NONE',  ( -10.00000000000000000, 10.00000000000000000, 10.00000000000000000 ) ) ;
#16 = LINE ( 'NONE', #312, #136 ) ;
#17 = DIRECTION ( 'NONE',  ( 0.0000000000000000000, 1.000000000000000000, 0.0000000000000000000 ) ) ;
#18 = DIRECTION ( 'NONE',  ( 0.7071067811865475700, 0.7071067811865475700, -0.0000000000000000000 ) ) ;
#19 = AXIS2_PLACEMENT_3D ( 'NONE', #143, #230, #34 ) ;
#20 = ORIENTED_EDGE ( 'NONE', *, *, #273, .T. ) ;
#21 = ORIENTED_EDGE ( 'NONE', *, *, #222, .T. ) ;
#22 = DIRECTION ( 'NONE',  ( 1.000000000000000000, 0.0000000000000000000, 0.0000000000000000000 ) ) ;
#23 = SECURITY_CLASSIFICATION_LEVEL ( 'unclassified' ) ;
#24 = FACE_OUTER_BOUND ( 'NONE', #321, .T. ) ;
#25 = AXIS2_PLACEMENT_3D ( 'NONE', #308, #59, #179 ) ;
#26 = VERTEX_POINT ( 'NONE', #67 ) ;
#27 = CC_DESIGN_APPROVAL ( #9, ( #317 ) ) ;
#28 = EDGE_CURVE ( 'NONE', #218, #181, #171, .T. ) ;
#29 = EDGE_LOOP ( 'NONE', ( #53, #281, #202 ) ) ;
#30 = UNCERTAINTY_MEASURE_WITH_UNIT (LENGTH_MEASURE( 1.000000000000000100E-005 ), #256, 'distance_accuracy_value', 'NONE');
#31 = FACE_OUTER_BOUND ( 'NONE', #5, .T. ) ;
#32 = CARTESIAN_POINT ( 'NONE',  ( 10.00000000000000000, 10.00000000000000000, 10.00000000000000000 ) ) ;
#33 = ORIENTED_EDGE ( 'NONE', *, *, #10, .T. ) ;
#34 = DIRECTION ( 'NONE',  ( 1.000000000000000000, 0.0000000000000000000, 0.0000000000000000000 ) ) ;
#35 = ADVANCED_FACE ( 'NONE', ( #31 ), #253, .F. ) ;
#36 = VECTOR ( 'NONE', #66, 1000.000000000000000 ) ;
#37 = PERSON_AND_ORGANIZATION ( #128, #55 ) ;
#38 = FACE_OUTER_BOUND ( 'NONE', #289, .T. ) ;
#39 = DIRECTION ( 'NONE',  ( -0.0000000000000000000, -0.0000000000000000000, -1.000000000000000000 ) ) ;
#40 = APPROVAL_PERSON_ORGANIZATION ( #252, #96, #132 ) ;
#41 = DIRECTION ( 'NONE',  ( -0.7071067811865474600, 0.7071067811865474600, 0.0000000000000000000 ) ) ;
#42 = CARTESIAN_POINT ( 'NONE',  ( -10.00000000000000000, -10.00000000000000000, 10.00000000000000000 ) ) ;
#43 = PLANE ( 'NONE',  #216 ) ;
#44 = CARTESIAN_POINT ( 'NONE',  ( 0.0000000000000000000, 0.0000000000000000000, 0.0000000000000000000 ) ) ;
#45 = LINE ( 'NONE', #311, #220 ) ;
#46 = PERSON_AND_ORGANIZATION_ROLE ( 'design_owner' ) ;
#47 = CC_DESIGN_PERSON_AND_ORGANIZATION_ASSIGNMENT ( #2, #259, ( #317 ) ) ;
#48 = EDGE_CURVE ( 'NONE', #299, #241, #113, .T. ) ;
#49 = DATE_TIME_ROLE ( 'classification_date' ) ;
#50 = PERSON_AND_ORGANIZATION ( #128, #55 ) ;
#51 = ORIENTED_EDGE ( 'NONE', *, *, #102, .F. ) ;
#52 = AXIS2_PLACEMENT_3D ( 'NONE', #186, #208, #151 ) ;
#53 = ORIENTED_EDGE ( 'NONE', *, *, #116, .F. ) ;
#54 = LINE ( 'NONE', #210, #193 ) ;
#55 = ORGANIZATION ( 'UNSPECIFIED', 'UNSPECIFIED', '' ) ;
#56 = CALENDAR_DATE ( 2017, 6, 6 ) ;
#57 = CARTESIAN_POINT ( 'NONE',  ( -0.0000000000000000000, 0.0000000000000000000, -10.00000000000000000 ) ) ;
#58 = CLOSED_SHELL ( 'NONE', ( #209, #227, #274, #83, #184 ) ) ;
#59 = DIRECTION ( 'NONE',  ( -0.0000000000000000000, 0.0000000000000000000, 1.000000000000000000 ) ) ;
#60 = COORDINATED_UNIVERSAL_TIME_OFFSET ( 5, 0, .BEHIND. ) ;
#61 = ORIENTED_EDGE ( 'NONE', *, *, #295, .T. ) ;
#62 = ORIENTED_EDGE ( 'NONE', *, *, #258, .T. ) ;
#63 = CC_DESIGN_DATE_AND_TIME_ASSIGNMENT ( #246, #111, ( #317 ) ) ;
#64 = EDGE_CURVE ( 'NONE', #26, #141, #161, .T. ) ;
#65 = DIRECTION ( 'NONE',  ( 0.0000000000000000000, 1.000000000000000000, -0.0000000000000000000 ) ) ;
#66 = DIRECTION ( 'NONE',  ( -0.0000000000000000000, -0.0000000000000000000, -1.000000000000000000 ) ) ;
#67 = CARTESIAN_POINT ( 'NONE',  ( 10.00000000000000000, -10.00000000000000000, -10.00000000000000000 ) ) ;
#68 = CARTESIAN_POINT ( 'NONE',  ( -10.00000000000000000, 0.0000000000000000000, 10.00000000000000000 ) ) ;
#69 = ORIENTED_EDGE ( 'NONE', *, *, #77, .F. ) ;
#70 = CARTESIAN_POINT ( 'NONE',  ( 0.0000000000000000000, 10.00000000000000000, 10.00000000000000000 ) ) ;
#71 = APPROVAL_DATE_TIME ( #275, #96 ) ;
#72 = APPLICATION_PROTOCOL_DEFINITION ( 'international standard', 'config_control_design', 1994, #217 ) ;
#73 = APPROVAL_ROLE ( '' ) ;
#74 = PRODUCT ( 'Web Model 47126_48573', 'Web Model 47126_48573', '', ( #198 ) ) ;
#75 = LINE ( 'NONE', #15, #138 ) ;
#76 = PRODUCT_DEFINITION_FORMATION_WITH_SPECIFIED_SOURCE ( 'ANY', '', #74, .NOT_KNOWN. ) ;
#77 = EDGE_CURVE ( 'NONE', #125, #141, #90, .T. ) ;
#78 = APPROVAL_DATE_TIME ( #296, #9 ) ;
#79 = ORIENTED_EDGE ( 'NONE', *, *, #28, .F. ) ;
#80 = DIRECTION ( 'NONE',  ( 0.0000000000000000000, 1.000000000000000000, -0.0000000000000000000 ) ) ;
#81 = AXIS2_PLACEMENT_3D ( 'NONE', #306, #248, #100 ) ;
#82 = CARTESIAN_POINT ( 'NONE',  ( -10.00000000000000000, 10.00000000000000000, 10.00000000000000000 ) ) ;
#83 = ADVANCED_FACE ( 'NONE', ( #172 ), #225, .T. ) ;
#84 = VERTEX_POINT ( 'NONE', #278 ) ;
#85 = PLANE ( 'NONE',  #110 ) ;
#86 = PRODUCT_DEFINITION_SHAPE ( 'NONE', 'NONE',  #317 ) ;
#87 = PLANE ( 'NONE',  #137 ) ;
#88 = COORDINATED_UNIVERSAL_TIME_OFFSET ( 5, 0, .BEHIND. ) ;
#89 = CARTESIAN_POINT ( 'NONE',  ( -0.0000000000000000000, 10.00000000000000000, -10.00000000000000000 ) ) ;
#90 = LINE ( 'NONE', #213, #36 ) ;
#91 = DIRECTION ( 'NONE',  ( -1.000000000000000000, 0.0000000000000000000, 0.0000000000000000000 ) ) ;
#92 = FACE_OUTER_BOUND ( 'NONE', #272, .T. ) ;
#93 = DIRECTION ( 'NONE',  ( -0.0000000000000000000, -0.0000000000000000000, -1.000000000000000000 ) ) ;
#94 =( NAMED_UNIT ( * ) PLANE_ANGLE_UNIT ( ) SI_UNIT ( $, .RADIAN. ) );
#95 = APPROVAL_ROLE ( '' ) ;
#96 = APPROVAL ( #286, 'UNSPECIFIED' ) ;
#97 = EDGE_CURVE ( 'NONE', #84, #292, #4, .T. ) ;
#98 = ORIENTED_EDGE ( 'NONE', *, *, #318, .F. ) ;
#99 = PERSON_AND_ORGANIZATION ( #128, #55 ) ;
#100 = DIRECTION ( 'NONE',  ( 1.000000000000000000, 0.0000000000000000000, 0.0000000000000000000 ) ) ;
#101 = CC_DESIGN_APPROVAL ( #96, ( #76 ) ) ;
#102 = EDGE_CURVE ( 'NONE', #292, #125, #178, .T. ) ;
#103 = CARTESIAN_POINT ( 'NONE',  ( 0.0000000000000000000, -10.00000000000000000, 10.00000000000000000 ) ) ;
#104 = ORIENTED_EDGE ( 'NONE', *, *, #318, .T. ) ;
#105 = CARTESIAN_POINT ( 'NONE',  ( 10.00000000000000000, 0.0000000000000000000, 10.00000000000000000 ) ) ;
#106 = COORDINATED_UNIVERSAL_TIME_OFFSET ( 5, 0, .BEHIND. ) ;
#107 = ORIENTED_EDGE ( 'NONE', *, *, #28, .T. ) ;
#108 = DIRECTION ( 'NONE',  ( -0.0000000000000000000, -0.0000000000000000000, -1.000000000000000000 ) ) ;
#109 = LINE ( 'NONE', #57, #145 ) ;
#110 = AXIS2_PLACEMENT_3D ( 'NONE', #124, #146, #11 ) ;
#111 = DATE_TIME_ROLE ( 'creation_date' ) ;
#112 = FACE_OUTER_BOUND ( 'NONE', #265, .T. ) ;
#113 = LINE ( 'NONE', #191, #233 ) ;
#114 = ORIENTED_EDGE ( 'NONE', *, *, #134, .F. ) ;
#115 = CC_DESIGN_PERSON_AND_ORGANIZATION_ASSIGNMENT ( #50, #319, ( #76 ) ) ;
#116 = EDGE_CURVE ( 'NONE', #135, #26, #109, .T. ) ;
#117 = ORIENTED_EDGE ( 'NONE', *, *, #258, .F. ) ;
#118 = VECTOR ( 'NONE', #245, 1000.000000000000100 ) ;
#119 = CARTESIAN_POINT ( 'NONE',  ( 10.00000000000000000, 0.0000000000000000000, 10.00000000000000000 ) ) ;
#120 = FACE_OUTER_BOUND ( 'NONE', #122, .T. ) ;
#121 = LOCAL_TIME ( 12, 55, 16.00000000000000000, #60 ) ;
#122 = EDGE_LOOP ( 'NONE', ( #114, #238, #205, #142 ) ) ;
#123 = ADVANCED_FACE ( 'NONE', ( #170 ), #183, .F. ) ;
#124 = CARTESIAN_POINT ( 'NONE',  ( -10.00000000000000000, 0.0000000000000000000, 10.00000000000000000 ) ) ;
#125 = VERTEX_POINT ( 'NONE', #32 ) ;
#126 = FACE_OUTER_BOUND ( 'NONE', #207, .T. ) ;
#127 = CARTESIAN_POINT ( 'NONE',  ( 10.00000000000000000, -10.00000000000000000, 10.00000000000000000 ) ) ;
#128 = PERSON ( 'UNSPECIFIED', 'UNSPECIFIED', 'UNSPECIFIED', ('UNSPECIFIED'), ('UNSPECIFIED'), ('UNSPECIFIED') ) ;
#129 = DIRECTION ( 'NONE',  ( 0.0000000000000000000, 1.000000000000000000, 0.0000000000000000000 ) ) ;
#130 = LINE ( 'NONE', #159, #279 ) ;
#131 = LINE ( 'NONE', #235, #263 ) ;
#132 = APPROVAL_ROLE ( '' ) ;
#133 = CC_DESIGN_PERSON_AND_ORGANIZATION_ASSIGNMENT ( #310, #163, ( #76 ) ) ;
#134 = EDGE_CURVE ( 'NONE', #135, #141, #197, .T. ) ;
#135 = VERTEX_POINT ( 'NONE', #247 ) ;
#136 = VECTOR ( 'NONE', #93, 1000.000000000000000 ) ;
#137 = AXIS2_PLACEMENT_3D ( 'NONE', #103, #17, #194 ) ;
#138 = VECTOR ( 'NONE', #154, 1000.000000000000000 ) ;
#139 = LOCAL_TIME ( 12, 55, 16.00000000000000000, #140 ) ;
#140 = COORDINATED_UNIVERSAL_TIME_OFFSET ( 5, 0, .BEHIND. ) ;
#141 = VERTEX_POINT ( 'NONE', #270 ) ;
#142 = ORIENTED_EDGE ( 'NONE', *, *, #77, .T. ) ;
#143 = CARTESIAN_POINT ( 'NONE',  ( 0.0000000000000000000, 0.0000000000000000000, -10.00000000000000000 ) ) ;
#144 = FACE_OUTER_BOUND ( 'NONE', #167, .T. ) ;
#145 = VECTOR ( 'NONE', #223, 1000.000000000000100 ) ;
#146 = DIRECTION ( 'NONE',  ( -1.000000000000000000, 0.0000000000000000000, 0.0000000000000000000 ) ) ;
#147 = PERSON_AND_ORGANIZATION ( #128, #55 ) ;
#148 = SECURITY_CLASSIFICATION ( '', '', #23 ) ;
#149 = EDGE_CURVE ( 'NONE', #84, #135, #287, .T. ) ;
#150 = COORDINATED_UNIVERSAL_TIME_OFFSET ( 5, 0, .BEHIND. ) ;
#151 = DIRECTION ( 'NONE',  ( 1.000000000000000000, 0.0000000000000000000, 0.0000000000000000000 ) ) ;
#152 = VECTOR ( 'NONE', #303, 1000.000000000000000 ) ;
#153 = DIRECTION ( 'NONE',  ( 0.0000000000000000000, 1.000000000000000000, -0.0000000000000000000 ) ) ;
#154 = DIRECTION ( 'NONE',  ( -0.0000000000000000000, -0.0000000000000000000, -1.000000000000000000 ) ) ;
#155 = CARTESIAN_POINT ( 'NONE',  ( 10.00000000000000000, -10.00000000000000000, 10.00000000000000000 ) ) ;
#156 = VECTOR ( 'NONE', #39, 1000.000000000000000 ) ;
#157 = VERTEX_POINT ( 'NONE', #6 ) ;
#158 = CARTESIAN_POINT ( 'NONE',  ( 0.0000000000000000000, 0.0000000000000000000, 10.00000000000000000 ) ) ;
#159 = CARTESIAN_POINT ( 'NONE',  ( 0.0000000000000000000, -10.00000000000000000, 10.00000000000000000 ) ) ;
#160 = VECTOR ( 'NONE', #229, 1000.000000000000000 ) ;
#161 = LINE ( 'NONE', #214, #177 ) ;
#162 = DIRECTION ( 'NONE',  ( 0.0000000000000000000, 0.0000000000000000000, 1.000000000000000000 ) ) ;
#163 = PERSON_AND_ORGANIZATION_ROLE ( 'design_supplier' ) ;
#164 = MANIFOLD_SOLID_BREP ( 'Boss-Extrude2', #58 ) ;
#165 = VECTOR ( 'NONE', #301, 1000.000000000000000 ) ;
#166 = ORIENTED_EDGE ( 'NONE', *, *, #48, .F. ) ;
#167 = EDGE_LOOP ( 'NONE', ( #264, #14, #262 ) ) ;
#168 = ORIENTED_EDGE ( 'NONE', *, *, #295, .F. ) ;
#169 = ORIENTED_EDGE ( 'NONE', *, *, #175, .T. ) ;
#170 = FACE_OUTER_BOUND ( 'NONE', #29, .T. ) ;
#171 = LINE ( 'NONE', #309, #261 ) ;
#172 = FACE_OUTER_BOUND ( 'NONE', #206, .T. ) ;
#173 = VECTOR ( 'NONE', #80, 1000.000000000000000 ) ;
#174 = CC_DESIGN_PERSON_AND_ORGANIZATION_ASSIGNMENT ( #99, #199, ( #148 ) ) ;
#175 = EDGE_CURVE ( 'NONE', #292, #26, #313, .T. ) ;
#176 = ORIENTED_EDGE ( 'NONE', *, *, #64, .T. ) ;
#177 = VECTOR ( 'NONE', #153, 1000.000000000000000 ) ;
#178 = LINE ( 'NONE', #119, #173 ) ;
#179 = DIRECTION ( 'NONE',  ( 1.000000000000000000, 0.0000000000000000000, 0.0000000000000000000 ) ) ;
#180 = ADVANCED_FACE ( 'NONE', ( #144 ), #7, .T. ) ;
#181 = VERTEX_POINT ( 'NONE', #190 ) ;
#182 = APPROVAL_DATE_TIME ( #249, #242 ) ;
#183 = PLANE ( 'NONE',  #19 ) ;
#184 = ADVANCED_FACE ( 'NONE', ( #126 ), #226, .F. ) ;
#185 = AXIS2_PLACEMENT_3D ( 'NONE', #158, #18, #196 ) ;
#186 = CARTESIAN_POINT ( 'NONE',  ( 0.0000000000000000000, 0.0000000000000000000, 10.00000000000000000 ) ) ;
#187 = LINE ( 'NONE', #276, #152 ) ;
#188 = DESIGN_CONTEXT ( 'detailed design', #217, 'design' ) ;
#189 = CARTESIAN_POINT ( 'NONE',  ( -10.00000000000000000, 10.00000000000000000, -10.00000000000000000 ) ) ;
#190 = CARTESIAN_POINT ( 'NONE',  ( 10.00000000000000000, -10.00000000000000000, -10.00000000000000000 ) ) ;
#191 = CARTESIAN_POINT ( 'NONE',  ( 0.0000000000000000000, 0.0000000000000000000, 10.00000000000000000 ) ) ;
#192 = DIRECTION ( 'NONE',  ( 0.7071067811865475700, 0.7071067811865475700, -0.0000000000000000000 ) ) ;
#193 = VECTOR ( 'NONE', #65, 1000.000000000000000 ) ;
#194 = DIRECTION ( 'NONE',  ( 0.0000000000000000000, -0.0000000000000000000, 1.000000000000000000 ) ) ;
#195 = LINE ( 'NONE', #68, #160 ) ;
#196 = DIRECTION ( 'NONE',  ( -0.7071067811865474600, 0.7071067811865474600, 0.0000000000000000000 ) ) ;
#197 = LINE ( 'NONE', #89, #285 ) ;
#198 = MECHANICAL_CONTEXT ( 'NONE', #316, 'mechanical' ) ;
#199 = PERSON_AND_ORGANIZATION_ROLE ( 'classification_officer' ) ;
#200 = CC_DESIGN_DATE_AND_TIME_ASSIGNMENT ( #255, #49, ( #148 ) ) ;
#201 = EDGE_CURVE ( 'NONE', #84, #125, #187, .T. ) ;
#202 = ORIENTED_EDGE ( 'NONE', *, *, #64, .F. ) ;
#203 = ORIENTED_EDGE ( 'NONE', *, *, #10, .F. ) ;
#204 =( GEOMETRIC_REPRESENTATION_CONTEXT ( 3 ) GLOBAL_UNCERTAINTY_ASSIGNED_CONTEXT ( ( #30 ) ) GLOBAL_UNIT_ASSIGNED_CONTEXT ( ( #256, #94, #257 ) ) REPRESENTATION_CONTEXT ( 'NONE', 'WORKASPACE' ) );
#205 = ORIENTED_EDGE ( 'NONE', *, *, #201, .T. ) ;
#206 = EDGE_LOOP ( 'NONE', ( #117, #104, #166 ) ) ;
#207 = EDGE_LOOP ( 'NONE', ( #302, #107, #314 ) ) ;
#208 = DIRECTION ( 'NONE',  ( -0.0000000000000000000, 0.0000000000000000000, 1.000000000000000000 ) ) ;
#209 = ADVANCED_FACE ( 'NONE', ( #92 ), #85, .T. ) ;
#210 = CARTESIAN_POINT ( 'NONE',  ( -10.00000000000000000, 0.0000000000000000000, -10.00000000000000000 ) ) ;
#211 = EDGE_CURVE ( 'NONE', #157, #218, #54, .T. ) ;
#212 = DIRECTION ( 'NONE',  ( 1.000000000000000000, 0.0000000000000000000, 0.0000000000000000000 ) ) ;
#213 = CARTESIAN_POINT ( 'NONE',  ( 10.00000000000000000, 10.00000000000000000, 10.00000000000000000 ) ) ;
#214 = CARTESIAN_POINT ( 'NONE',  ( 10.00000000000000000, 0.0000000000000000000, -10.00000000000000000 ) ) ;
#215 = CALENDAR_DATE ( 2017, 6, 6 ) ;
#216 = AXIS2_PLACEMENT_3D ( 'NONE', #70, #129, #315 ) ;
#217 = APPLICATION_CONTEXT ( 'configuration controlled 3d designs of mechanical parts and assemblies' ) ;
#218 = VERTEX_POINT ( 'NONE', #189 ) ;
#219 = APPROVAL_STATUS ( 'not_yet_approved' ) ;
#220 = VECTOR ( 'NONE', #250, 1000.000000000000000 ) ;
#221 = ORIENTED_EDGE ( 'NONE', *, *, #211, .F. ) ;
#222 = EDGE_CURVE ( 'NONE', #157, #181, #45, .T. ) ;
#223 = DIRECTION ( 'NONE',  ( 0.7071067811865474600, -0.7071067811865474600, 0.0000000000000000000 ) ) ;
#224 = CALENDAR_DATE ( 2017, 6, 6 ) ;
#225 = PLANE ( 'NONE',  #25 ) ;
#226 = PLANE ( 'NONE',  #81 ) ;
#227 = ADVANCED_FACE ( 'NONE', ( #38 ), #87, .F. ) ;
#228 = CALENDAR_DATE ( 2017, 6, 6 ) ;
#229 = DIRECTION ( 'NONE',  ( 0.0000000000000000000, 1.000000000000000000, -0.0000000000000000000 ) ) ;
#230 = DIRECTION ( 'NONE',  ( -0.0000000000000000000, 0.0000000000000000000, 1.000000000000000000 ) ) ;
#231 = DIRECTION ( 'NONE',  ( 0.0000000000000000000, 0.0000000000000000000, 1.000000000000000000 ) ) ;
#232 = CARTESIAN_POINT ( 'NONE',  ( 0.0000000000000000000, 0.0000000000000000000, 10.00000000000000000 ) ) ;
#233 = VECTOR ( 'NONE', #13, 1000.000000000000100 ) ;
#234 = ORIENTED_EDGE ( 'NONE', *, *, #273, .F. ) ;
#235 = CARTESIAN_POINT ( 'NONE',  ( -10.00000000000000000, -10.00000000000000000, 10.00000000000000000 ) ) ;
#236 = CARTESIAN_POINT ( 'NONE',  ( -10.00000000000000000, 10.00000000000000000, 10.00000000000000000 ) ) ;
#237 = APPROVAL_STATUS ( 'not_yet_approved' ) ;
#238 = ORIENTED_EDGE ( 'NONE', *, *, #149, .F. ) ;
#239 = ORIENTED_EDGE ( 'NONE', *, *, #97, .F. ) ;
#240 = LOCAL_TIME ( 12, 55, 16.00000000000000000, #106 ) ;
#241 = VERTEX_POINT ( 'NONE', #155 ) ;
#242 = APPROVAL ( #219, 'UNSPECIFIED' ) ;
#243 = VERTEX_POINT ( 'NONE', #42 ) ;
#244 = LOCAL_TIME ( 12, 55, 16.00000000000000000, #88 ) ;
#245 = DIRECTION ( 'NONE',  ( 0.7071067811865474600, -0.7071067811865474600, 0.0000000000000000000 ) ) ;
#246 = DATE_AND_TIME ( #224, #240 ) ;
#247 = CARTESIAN_POINT ( 'NONE',  ( -10.00000000000000000, 10.00000000000000000, -10.00000000000000000 ) ) ;
#248 = DIRECTION ( 'NONE',  ( -0.0000000000000000000, 0.0000000000000000000, 1.000000000000000000 ) ) ;
#249 = DATE_AND_TIME ( #56, #121 ) ;
#250 = DIRECTION ( 'NONE',  ( 1.000000000000000000, 0.0000000000000000000, 0.0000000000000000000 ) ) ;
#251 = CARTESIAN_POINT ( 'NONE',  ( 0.0000000000000000000, 0.0000000000000000000, 10.00000000000000000 ) ) ;
#252 = PERSON_AND_ORGANIZATION ( #128, #55 ) ;
#253 = PLANE ( 'NONE',  #307 ) ;
#254 = PLANE ( 'NONE',  #267 ) ;
#255 = DATE_AND_TIME ( #228, #244 ) ;
#256 =( LENGTH_UNIT ( ) NAMED_UNIT ( * ) SI_UNIT ( .MILLI., .METRE. ) );
#257 =( NAMED_UNIT ( * ) SI_UNIT ( $, .STERADIAN. ) SOLID_ANGLE_UNIT ( ) );
#258 = EDGE_CURVE ( 'NONE', #243, #299, #195, .T. ) ;
#259 = PERSON_AND_ORGANIZATION_ROLE ( 'creator' ) ;
#260 = CC_DESIGN_APPROVAL ( #242, ( #148 ) ) ;
#261 = VECTOR ( 'NONE', #280, 1000.000000000000100 ) ;
#262 = ORIENTED_EDGE ( 'NONE', *, *, #201, .F. ) ;
#263 = VECTOR ( 'NONE', #108, 1000.000000000000000 ) ;
#264 = ORIENTED_EDGE ( 'NONE', *, *, #97, .T. ) ;
#265 = EDGE_LOOP ( 'NONE', ( #79, #203, #3, #61 ) ) ;
#266 = LOCAL_TIME ( 12, 55, 16.00000000000000000, #150 ) ;
#267 = AXIS2_PLACEMENT_3D ( 'NONE', #232, #192, #41 ) ;
#268 = APPROVAL_PERSON_ORGANIZATION ( #298, #242, #73 ) ;
#269 = CLOSED_SHELL ( 'NONE', ( #8, #35, #305, #180, #123 ) ) ;
#270 = CARTESIAN_POINT ( 'NONE',  ( 10.00000000000000000, 10.00000000000000000, -10.00000000000000000 ) ) ;
#271 = AXIS2_PLACEMENT_3D ( 'NONE', #44, #162, #22 ) ;
#272 = EDGE_LOOP ( 'NONE', ( #221, #234, #62, #33 ) ) ;
#273 = EDGE_CURVE ( 'NONE', #243, #157, #131, .T. ) ;
#274 = ADVANCED_FACE ( 'NONE', ( #112 ), #282, .T. ) ;
#275 = DATE_AND_TIME ( #293, #139 ) ;
#276 = CARTESIAN_POINT ( 'NONE',  ( 0.0000000000000000000, 10.00000000000000000, 10.00000000000000000 ) ) ;
#277 = CC_DESIGN_SECURITY_CLASSIFICATION ( #148, ( #76 ) ) ;
#278 = CARTESIAN_POINT ( 'NONE',  ( -10.00000000000000000, 10.00000000000000000, 10.00000000000000000 ) ) ;
#279 = VECTOR ( 'NONE', #283, 1000.000000000000000 ) ;
#280 = DIRECTION ( 'NONE',  ( 0.7071067811865474600, -0.7071067811865474600, 0.0000000000000000000 ) ) ;
#281 = ORIENTED_EDGE ( 'NONE', *, *, #134, .T. ) ;
#282 = PLANE ( 'NONE',  #185 ) ;
#283 = DIRECTION ( 'NONE',  ( 1.000000000000000000, 0.0000000000000000000, 0.0000000000000000000 ) ) ;
#284 = APPLICATION_PROTOCOL_DEFINITION ( 'international standard', 'config_control_design', 1994, #316 ) ;
#285 = VECTOR ( 'NONE', #212, 1000.000000000000000 ) ;
#286 = APPROVAL_STATUS ( 'not_yet_approved' ) ;
#287 = LINE ( 'NONE', #82, #165 ) ;
#288 = SHAPE_DEFINITION_REPRESENTATION ( #86, #304 ) ;
#289 = EDGE_LOOP ( 'NONE', ( #21, #168, #98, #20 ) ) ;
#290 = MANIFOLD_SOLID_BREP ( 'Boss-Extrude3', #269 ) ;
#291 = ORIENTED_EDGE ( 'NONE', *, *, #175, .F. ) ;
#292 = VERTEX_POINT ( 'NONE', #127 ) ;
#293 = CALENDAR_DATE ( 2017, 6, 6 ) ;
#294 = CC_DESIGN_PERSON_AND_ORGANIZATION_ASSIGNMENT ( #37, #46, ( #74 ) ) ;
#295 = EDGE_CURVE ( 'NONE', #241, #181, #16, .T. ) ;
#296 = DATE_AND_TIME ( #215, #266 ) ;
#297 = PRODUCT_RELATED_PRODUCT_CATEGORY ( 'detail', '', ( #74 ) ) ;
#298 = PERSON_AND_ORGANIZATION ( #128, #55 ) ;
#299 = VERTEX_POINT ( 'NONE', #236 ) ;
#300 = APPROVAL_PERSON_ORGANIZATION ( #147, #9, #95 ) ;
#301 = DIRECTION ( 'NONE',  ( -0.0000000000000000000, -0.0000000000000000000, -1.000000000000000000 ) ) ;
#302 = ORIENTED_EDGE ( 'NONE', *, *, #211, .T. ) ;
#303 = DIRECTION ( 'NONE',  ( 1.000000000000000000, 0.0000000000000000000, 0.0000000000000000000 ) ) ;
#304 = ADVANCED_BREP_SHAPE_REPRESENTATION ( 'Web Model 47126_48573', ( #164, #290, #271 ), #204 ) ;
#305 = ADVANCED_FACE ( 'NONE', ( #120 ), #43, .T. ) ;
#306 = CARTESIAN_POINT ( 'NONE',  ( 0.0000000000000000000, 0.0000000000000000000, -10.00000000000000000 ) ) ;
#307 = AXIS2_PLACEMENT_3D ( 'NONE', #105, #91, #231 ) ;
#308 = CARTESIAN_POINT ( 'NONE',  ( 0.0000000000000000000, 0.0000000000000000000, 10.00000000000000000 ) ) ;
#309 = CARTESIAN_POINT ( 'NONE',  ( -0.0000000000000000000, 0.0000000000000000000, -10.00000000000000000 ) ) ;
#310 = PERSON_AND_ORGANIZATION ( #128, #55 ) ;
#311 = CARTESIAN_POINT ( 'NONE',  ( 0.0000000000000000000, -10.00000000000000000, -10.00000000000000000 ) ) ;
#312 = CARTESIAN_POINT ( 'NONE',  ( 10.00000000000000000, -10.00000000000000000, 10.00000000000000000 ) ) ;
#313 = LINE ( 'NONE', #12, #156 ) ;
#314 = ORIENTED_EDGE ( 'NONE', *, *, #222, .F. ) ;
#315 = DIRECTION ( 'NONE',  ( 0.0000000000000000000, -0.0000000000000000000, 1.000000000000000000 ) ) ;
#316 = APPLICATION_CONTEXT ( 'configuration controlled 3d designs of mechanical parts and assemblies' ) ;
#317 = PRODUCT_DEFINITION ( 'UNKNOWN', '', #76, #188 ) ;
#318 = EDGE_CURVE ( 'NONE', #243, #241, #130, .T. ) ;
#319 = PERSON_AND_ORGANIZATION_ROLE ( 'creator' ) ;
#320 = ORIENTED_EDGE ( 'NONE', *, *, #149, .T. ) ;
#321 = EDGE_LOOP ( 'NONE', ( #1, #291, #239, #320 ) ) ;
ENDSEC;
END-ISO-10303-21;
