ISO-10303-21;
HEADER;
FILE_DESCRIPTION (( 'STEP AP203' ),
    '1' );
FILE_NAME ('Web Model Lightsmyth Gratings_16861.step',
    '2021-03-11T20:23:36',
    ( '' ),
    ( '' ),
    'SwSTEP 2.0',
    'SolidWorks 2018',
    '' );
FILE_SCHEMA (( 'CONFIG_CONTROL_DESIGN' ));
ENDSEC;

DATA;
#1 = VERTEX_POINT ( 'NONE', #119 ) ;
#2 = LOCAL_TIME ( 15, 23, 36.00000000000000000, #191 ) ;
#3 = LINE ( 'NONE', #20, #188 ) ;
#4 = LINE ( 'NONE', #225, #143 ) ;
#5 = PLANE ( 'NONE',  #69 ) ;
#6 = CLOSED_SHELL ( 'NONE', ( #156, #170, #158, #52, #74, #136 ) ) ;
#7 = FACE_OUTER_BOUND ( 'NONE', #11, .T. ) ;
#8 = DIRECTION ( 'NONE',  ( 1.000000000000000000, 0.0000000000000000000, 0.0000000000000000000 ) ) ;
#9 = DIRECTION ( 'NONE',  ( 0.0000000000000000000, 0.0000000000000000000, 1.000000000000000000 ) ) ;
#10 = MECHANICAL_CONTEXT ( 'NONE', #129, 'mechanical' ) ;
#11 = EDGE_LOOP ( 'NONE', ( #32, #15, #106, #47 ) ) ;
#12 = FACE_OUTER_BOUND ( 'NONE', #18, .T. ) ;
#13 = APPLICATION_CONTEXT ( 'configuration controlled 3d designs of mechanical parts and assemblies' ) ;
#14 = ORIENTED_EDGE ( 'NONE', *, *, #116, .F. ) ;
#15 = ORIENTED_EDGE ( 'NONE', *, *, #214, .F. ) ;
#16 = APPROVAL_DATE_TIME ( #178, #41 ) ;
#17 = APPROVAL ( #226, 'UNSPECIFIED' ) ;
#18 = EDGE_LOOP ( 'NONE', ( #55, #36, #235, #132 ) ) ;
#19 = AXIS2_PLACEMENT_3D ( 'NONE', #84, #227, #110 ) ;
#20 = CARTESIAN_POINT ( 'NONE',  ( 65.00000000000002842, -7.449999999999991296, 0.0000000000000000000 ) ) ;
#21 = DIRECTION ( 'NONE',  ( 0.0000000000000000000, -0.0000000000000000000, 1.000000000000000000 ) ) ;
#22 = PERSON_AND_ORGANIZATION ( #176, #230 ) ;
#23 = EDGE_CURVE ( 'NONE', #209, #130, #198, .T. ) ;
#24 = PLANE ( 'NONE',  #113 ) ;
#25 = DIRECTION ( 'NONE',  ( 0.0000000000000000000, 0.0000000000000000000, -1.000000000000000000 ) ) ;
#26 = APPROVAL_STATUS ( 'not_yet_approved' ) ;
#27 = ORIENTED_EDGE ( 'NONE', *, *, #214, .T. ) ;
#28 = DIRECTION ( 'NONE',  ( 1.000000000000000000, 0.0000000000000000000, 0.0000000000000000000 ) ) ;
#29 = SECURITY_CLASSIFICATION_LEVEL ( 'unclassified' ) ;
#30 = CC_DESIGN_APPROVAL ( #17, ( #134 ) ) ;
#31 = CARTESIAN_POINT ( 'NONE',  ( -64.99999999999997158, -7.449999999999991296, 0.0000000000000000000 ) ) ;
#32 = ORIENTED_EDGE ( 'NONE', *, *, #54, .T. ) ;
#33 = CALENDAR_DATE ( 2021, 11, 3 ) ;
#34 = VECTOR ( 'NONE', #172, 1000.000000000000000 ) ;
#35 = APPROVAL_DATE_TIME ( #102, #228 ) ;
#36 = ORIENTED_EDGE ( 'NONE', *, *, #98, .F. ) ;
#37 = CARTESIAN_POINT ( 'NONE',  ( -64.99999999999997158, 7.450000000000009059, 0.0000000000000000000 ) ) ;
#38 = CARTESIAN_POINT ( 'NONE',  ( 65.00000000000002842, -7.449999999999991296, 0.0000000000000000000 ) ) ;
#39 = VECTOR ( 'NONE', #185, 1000.000000000000000 ) ;
#40 = LINE ( 'NONE', #192, #152 ) ;
#41 = APPROVAL ( #26, 'UNSPECIFIED' ) ;
#42 = VERTEX_POINT ( 'NONE', #217 ) ;
#43 = DIRECTION ( 'NONE',  ( -1.000000000000000000, 0.0000000000000000000, 0.0000000000000000000 ) ) ;
#44 = DIRECTION ( 'NONE',  ( 0.0000000000000000000, 0.0000000000000000000, -1.000000000000000000 ) ) ;
#45 = CARTESIAN_POINT ( 'NONE',  ( -64.99999999999997158, -7.449999999999991296, 0.9499999999999999556 ) ) ;
#46 = EDGE_CURVE ( 'NONE', #232, #101, #154, .T. ) ;
#47 = ORIENTED_EDGE ( 'NONE', *, *, #234, .T. ) ;
#48 = ORIENTED_EDGE ( 'NONE', *, *, #237, .F. ) ;
#49 = PERSON_AND_ORGANIZATION ( #176, #230 ) ;
#50 = DATE_AND_TIME ( #159, #57 ) ;
#51 = PERSON_AND_ORGANIZATION ( #176, #230 ) ;
#52 = ADVANCED_FACE ( 'NONE', ( #85 ), #219, .F. ) ;
#53 = ORIENTED_EDGE ( 'NONE', *, *, #72, .T. ) ;
#54 = EDGE_CURVE ( 'NONE', #135, #232, #3, .T. ) ;
#55 = ORIENTED_EDGE ( 'NONE', *, *, #222, .T. ) ;
#56 = CARTESIAN_POINT ( 'NONE',  ( -64.99999999999997158, -7.449999999999991296, 0.9499999999999999556 ) ) ;
#57 = LOCAL_TIME ( 15, 23, 36.00000000000000000, #208 ) ;
#58 = CC_DESIGN_DATE_AND_TIME_ASSIGNMENT ( #80, #64, ( #149 ) ) ;
#59 = DIRECTION ( 'NONE',  ( 0.0000000000000000000, 0.0000000000000000000, -1.000000000000000000 ) ) ;
#60 = DIRECTION ( 'NONE',  ( -0.0000000000000000000, -0.0000000000000000000, -1.000000000000000000 ) ) ;
#61 = EDGE_CURVE ( 'NONE', #42, #1, #147, .T. ) ;
#62 = CC_DESIGN_SECURITY_CLASSIFICATION ( #134, ( #109 ) ) ;
#63 = EDGE_LOOP ( 'NONE', ( #204, #177, #14, #151 ) ) ;
#64 = DATE_TIME_ROLE ( 'creation_date' ) ;
#65 = APPLICATION_PROTOCOL_DEFINITION ( 'international standard', 'config_control_design', 1994, #13 ) ;
#66 = CC_DESIGN_PERSON_AND_ORGANIZATION_ASSIGNMENT ( #173, #108, ( #149 ) ) ;
#67 = APPLICATION_PROTOCOL_DEFINITION ( 'international standard', 'config_control_design', 1994, #129 ) ;
#68 = ORIENTED_EDGE ( 'NONE', *, *, #203, .F. ) ;
#69 = AXIS2_PLACEMENT_3D ( 'NONE', #99, #59, #223 ) ;
#70 = DATE_AND_TIME ( #77, #2 ) ;
#71 = CC_DESIGN_PERSON_AND_ORGANIZATION_ASSIGNMENT ( #49, #81, ( #134 ) ) ;
#72 = EDGE_CURVE ( 'NONE', #1, #209, #229, .T. ) ;
#73 = ORIENTED_EDGE ( 'NONE', *, *, #46, .F. ) ;
#74 = ADVANCED_FACE ( 'NONE', ( #97 ), #5, .F. ) ;
#75 = DIRECTION ( 'NONE',  ( 0.0000000000000000000, 1.000000000000000000, 0.0000000000000000000 ) ) ;
#76 = ADVANCED_BREP_SHAPE_REPRESENTATION ( 'Web Model Lightsmyth Gratings_16861', ( #212, #167 ), #218 ) ;
#77 = CALENDAR_DATE ( 2021, 11, 3 ) ;
#78 = DIRECTION ( 'NONE',  ( 0.0000000000000000000, 1.000000000000000000, 0.0000000000000000000 ) ) ;
#79 = CC_DESIGN_DATE_AND_TIME_ASSIGNMENT ( #70, #168, ( #134 ) ) ;
#80 = DATE_AND_TIME ( #137, #133 ) ;
#81 = PERSON_AND_ORGANIZATION_ROLE ( 'classification_officer' ) ;
#82 = CARTESIAN_POINT ( 'NONE',  ( 0.0000000000000000000, 0.0000000000000000000, 0.0000000000000000000 ) ) ;
#83 =( LENGTH_UNIT ( ) NAMED_UNIT ( * ) SI_UNIT ( .MILLI., .METRE. ) );
#84 = CARTESIAN_POINT ( 'NONE',  ( -64.99999999999997158, 7.450000000000009059, 0.9499999999999999556 ) ) ;
#85 = FACE_OUTER_BOUND ( 'NONE', #63, .T. ) ;
#86 = APPROVAL_PERSON_ORGANIZATION ( #140, #228, #213 ) ;
#87 = SHAPE_DEFINITION_REPRESENTATION ( #131, #76 ) ;
#88 = ORIENTED_EDGE ( 'NONE', *, *, #61, .T. ) ;
#89 = VECTOR ( 'NONE', #179, 1000.000000000000000 ) ;
#90 = VECTOR ( 'NONE', #75, 1000.000000000000000 ) ;
#91 = APPROVAL_PERSON_ORGANIZATION ( #187, #41, #104 ) ;
#92 = CARTESIAN_POINT ( 'NONE',  ( 65.00000000000002842, -7.449999999999991296, 0.9499999999999999556 ) ) ;
#93 = ORIENTED_EDGE ( 'NONE', *, *, #72, .F. ) ;
#94 = VECTOR ( 'NONE', #144, 1000.000000000000000 ) ;
#95 = CC_DESIGN_PERSON_AND_ORGANIZATION_ASSIGNMENT ( #148, #200, ( #193 ) ) ;
#96 = DIRECTION ( 'NONE',  ( 0.0000000000000000000, 1.000000000000000000, 0.0000000000000000000 ) ) ;
#97 = FACE_OUTER_BOUND ( 'NONE', #122, .T. ) ;
#98 = EDGE_CURVE ( 'NONE', #130, #142, #236, .T. ) ;
#99 = CARTESIAN_POINT ( 'NONE',  ( 0.0000000000000000000, 0.0000000000000000000, 0.9499999999999999556 ) ) ;
#100 = CARTESIAN_POINT ( 'NONE',  ( -64.99999999999997158, -7.449999999999991296, 0.9499999999999999556 ) ) ;
#101 = VERTEX_POINT ( 'NONE', #161 ) ;
#102 = DATE_AND_TIME ( #33, #157 ) ;
#103 = PLANE ( 'NONE',  #19 ) ;
#104 = APPROVAL_ROLE ( '' ) ;
#105 = PERSON_AND_ORGANIZATION_ROLE ( 'creator' ) ;
#106 = ORIENTED_EDGE ( 'NONE', *, *, #61, .F. ) ;
#107 = COORDINATED_UNIVERSAL_TIME_OFFSET ( 5, 0, .BEHIND. ) ;
#108 = PERSON_AND_ORGANIZATION_ROLE ( 'creator' ) ;
#109 = PRODUCT_DEFINITION_FORMATION_WITH_SPECIFIED_SOURCE ( 'ANY', '', #193, .NOT_KNOWN. ) ;
#110 = DIRECTION ( 'NONE',  ( 0.0000000000000000000, -0.0000000000000000000, -1.000000000000000000 ) ) ;
#111 = ORIENTED_EDGE ( 'NONE', *, *, #54, .F. ) ;
#112 = LINE ( 'NONE', #31, #233 ) ;
#113 = AXIS2_PLACEMENT_3D ( 'NONE', #45, #180, #44 ) ;
#114 = PRODUCT_RELATED_PRODUCT_CATEGORY ( 'detail', '', ( #193 ) ) ;
#115 = COORDINATED_UNIVERSAL_TIME_OFFSET ( 5, 0, .BEHIND. ) ;
#116 = EDGE_CURVE ( 'NONE', #130, #42, #4, .T. ) ;
#117 = CARTESIAN_POINT ( 'NONE',  ( -64.99999999999997158, -7.449999999999991296, 0.9499999999999999556 ) ) ;
#118 = DESIGN_CONTEXT ( 'detailed design', #13, 'design' ) ;
#119 = CARTESIAN_POINT ( 'NONE',  ( 65.00000000000002842, 7.450000000000009059, 0.9499999999999999556 ) ) ;
#120 = APPROVAL_DATE_TIME ( #50, #17 ) ;
#121 = DIRECTION ( 'NONE',  ( -1.000000000000000000, -0.0000000000000000000, -0.0000000000000000000 ) ) ;
#122 = EDGE_LOOP ( 'NONE', ( #88, #53, #139, #125 ) ) ;
#123 = AXIS2_PLACEMENT_3D ( 'NONE', #189, #25, #141 ) ;
#124 = APPROVAL_ROLE ( '' ) ;
#125 = ORIENTED_EDGE ( 'NONE', *, *, #116, .T. ) ;
#126 = PERSON_AND_ORGANIZATION ( #176, #230 ) ;
#127 = CARTESIAN_POINT ( 'NONE',  ( -64.99999999999997158, 7.450000000000009059, 0.9499999999999999556 ) ) ;
#128 = CARTESIAN_POINT ( 'NONE',  ( 65.00000000000002842, 7.450000000000009059, 0.0000000000000000000 ) ) ;
#129 = APPLICATION_CONTEXT ( 'configuration controlled 3d designs of mechanical parts and assemblies' ) ;
#130 = VERTEX_POINT ( 'NONE', #100 ) ;
#131 = PRODUCT_DEFINITION_SHAPE ( 'NONE', 'NONE',  #149 ) ;
#132 = ORIENTED_EDGE ( 'NONE', *, *, #203, .T. ) ;
#133 = LOCAL_TIME ( 15, 23, 36.00000000000000000, #115 ) ;
#134 = SECURITY_CLASSIFICATION ( '', '', #29 ) ;
#135 = VERTEX_POINT ( 'NONE', #38 ) ;
#136 = ADVANCED_FACE ( 'NONE', ( #183 ), #174, .T. ) ;
#137 = CALENDAR_DATE ( 2021, 11, 3 ) ;
#138 = CARTESIAN_POINT ( 'NONE',  ( -64.99999999999997158, -7.449999999999991296, 0.9499999999999999556 ) ) ;
#139 = ORIENTED_EDGE ( 'NONE', *, *, #23, .T. ) ;
#140 = PERSON_AND_ORGANIZATION ( #176, #230 ) ;
#141 = DIRECTION ( 'NONE',  ( -1.000000000000000000, 0.0000000000000000000, -0.0000000000000000000 ) ) ;
#142 = VERTEX_POINT ( 'NONE', #210 ) ;
#143 = VECTOR ( 'NONE', #8, 1000.000000000000000 ) ;
#144 = DIRECTION ( 'NONE',  ( -0.0000000000000000000, -1.000000000000000000, -0.0000000000000000000 ) ) ;
#145 = PERSON_AND_ORGANIZATION_ROLE ( 'design_supplier' ) ;
#146 = CARTESIAN_POINT ( 'NONE',  ( 65.00000000000002842, 7.450000000000009059, 0.9499999999999999556 ) ) ;
#147 = LINE ( 'NONE', #92, #90 ) ;
#148 = PERSON_AND_ORGANIZATION ( #176, #230 ) ;
#149 = PRODUCT_DEFINITION ( 'UNKNOWN', '', #109, #118 ) ;
#150 = CARTESIAN_POINT ( 'NONE',  ( -64.99999999999997158, -7.449999999999991296, 0.0000000000000000000 ) ) ;
#151 = ORIENTED_EDGE ( 'NONE', *, *, #98, .T. ) ;
#152 = VECTOR ( 'NONE', #182, 1000.000000000000000 ) ;
#153 = CC_DESIGN_PERSON_AND_ORGANIZATION_ASSIGNMENT ( #126, #105, ( #109 ) ) ;
#154 = LINE ( 'NONE', #37, #34 ) ;
#155 = LINE ( 'NONE', #146, #89 ) ;
#156 = ADVANCED_FACE ( 'NONE', ( #7 ), #164, .F. ) ;
#157 = LOCAL_TIME ( 15, 23, 36.00000000000000000, #160 ) ;
#158 = ADVANCED_FACE ( 'NONE', ( #12 ), #24, .F. ) ;
#159 = CALENDAR_DATE ( 2021, 11, 3 ) ;
#160 = COORDINATED_UNIVERSAL_TIME_OFFSET ( 5, 0, .BEHIND. ) ;
#161 = CARTESIAN_POINT ( 'NONE',  ( -64.99999999999997158, 7.450000000000009059, 0.0000000000000000000 ) ) ;
#162 = CC_DESIGN_APPROVAL ( #41, ( #149 ) ) ;
#163 = LINE ( 'NONE', #150, #94 ) ;
#164 = PLANE ( 'NONE',  #175 ) ;
#165 = CARTESIAN_POINT ( 'NONE',  ( 65.00000000000002842, -7.449999999999991296, 0.9499999999999999556 ) ) ;
#166 = DIRECTION ( 'NONE',  ( 1.000000000000000000, 0.0000000000000000000, 0.0000000000000000000 ) ) ;
#167 = AXIS2_PLACEMENT_3D ( 'NONE', #82, #195, #166 ) ;
#168 = DATE_TIME_ROLE ( 'classification_date' ) ;
#169 = APPROVAL_PERSON_ORGANIZATION ( #22, #17, #124 ) ;
#170 = ADVANCED_FACE ( 'NONE', ( #199 ), #103, .F. ) ;
#171 = EDGE_LOOP ( 'NONE', ( #186, #68, #93, #27 ) ) ;
#172 = DIRECTION ( 'NONE',  ( -1.000000000000000000, -0.0000000000000000000, -0.0000000000000000000 ) ) ;
#173 = PERSON_AND_ORGANIZATION ( #176, #230 ) ;
#174 = PLANE ( 'NONE',  #123 ) ;
#175 = AXIS2_PLACEMENT_3D ( 'NONE', #197, #43, #9 ) ;
#176 = PERSON ( 'UNSPECIFIED', 'UNSPECIFIED', 'UNSPECIFIED', ('UNSPECIFIED'), ('UNSPECIFIED'), ('UNSPECIFIED') ) ;
#177 = ORIENTED_EDGE ( 'NONE', *, *, #234, .F. ) ;
#178 = DATE_AND_TIME ( #205, #202 ) ;
#179 = DIRECTION ( 'NONE',  ( -0.0000000000000000000, -0.0000000000000000000, -1.000000000000000000 ) ) ;
#180 = DIRECTION ( 'NONE',  ( 1.000000000000000000, 0.0000000000000000000, 0.0000000000000000000 ) ) ;
#181 = VECTOR ( 'NONE', #211, 1000.000000000000000 ) ;
#182 = DIRECTION ( 'NONE',  ( -0.0000000000000000000, -0.0000000000000000000, -1.000000000000000000 ) ) ;
#183 = FACE_OUTER_BOUND ( 'NONE', #220, .T. ) ;
#184 = VECTOR ( 'NONE', #121, 1000.000000000000000 ) ;
#185 = DIRECTION ( 'NONE',  ( -0.0000000000000000000, -1.000000000000000000, -0.0000000000000000000 ) ) ;
#186 = ORIENTED_EDGE ( 'NONE', *, *, #46, .T. ) ;
#187 = PERSON_AND_ORGANIZATION ( #176, #230 ) ;
#188 = VECTOR ( 'NONE', #96, 1000.000000000000000 ) ;
#189 = CARTESIAN_POINT ( 'NONE',  ( 0.0000000000000000000, 0.0000000000000000000, 0.0000000000000000000 ) ) ;
#190 = CC_DESIGN_PERSON_AND_ORGANIZATION_ASSIGNMENT ( #51, #145, ( #109 ) ) ;
#191 = COORDINATED_UNIVERSAL_TIME_OFFSET ( 5, 0, .BEHIND. ) ;
#192 = CARTESIAN_POINT ( 'NONE',  ( -64.99999999999997158, 7.450000000000009059, 0.9499999999999999556 ) ) ;
#193 = PRODUCT ( 'Web Model Lightsmyth Gratings_16861', 'Web Model Lightsmyth Gratings_16861', '', ( #10 ) ) ;
#194 =( NAMED_UNIT ( * ) SI_UNIT ( $, .STERADIAN. ) SOLID_ANGLE_UNIT ( ) );
#195 = DIRECTION ( 'NONE',  ( 0.0000000000000000000, 0.0000000000000000000, 1.000000000000000000 ) ) ;
#196 = UNCERTAINTY_MEASURE_WITH_UNIT (LENGTH_MEASURE( 1.000000000000000082E-05 ), #83, 'distance_accuracy_value', 'NONE');
#197 = CARTESIAN_POINT ( 'NONE',  ( 65.00000000000002842, -7.449999999999991296, 0.9499999999999999556 ) ) ;
#198 = LINE ( 'NONE', #56, #39 ) ;
#199 = FACE_OUTER_BOUND ( 'NONE', #171, .T. ) ;
#200 = PERSON_AND_ORGANIZATION_ROLE ( 'design_owner' ) ;
#201 = AXIS2_PLACEMENT_3D ( 'NONE', #117, #78, #21 ) ;
#202 = LOCAL_TIME ( 15, 23, 36.00000000000000000, #107 ) ;
#203 = EDGE_CURVE ( 'NONE', #209, #101, #40, .T. ) ;
#204 = ORIENTED_EDGE ( 'NONE', *, *, #237, .T. ) ;
#205 = CALENDAR_DATE ( 2021, 11, 3 ) ;
#206 = CC_DESIGN_APPROVAL ( #228, ( #109 ) ) ;
#207 = CARTESIAN_POINT ( 'NONE',  ( -64.99999999999997158, 7.450000000000009059, 0.9499999999999999556 ) ) ;
#208 = COORDINATED_UNIVERSAL_TIME_OFFSET ( 5, 0, .BEHIND. ) ;
#209 = VERTEX_POINT ( 'NONE', #127 ) ;
#210 = CARTESIAN_POINT ( 'NONE',  ( -64.99999999999997158, -7.449999999999991296, 0.0000000000000000000 ) ) ;
#211 = DIRECTION ( 'NONE',  ( -0.0000000000000000000, -0.0000000000000000000, -1.000000000000000000 ) ) ;
#212 = MANIFOLD_SOLID_BREP ( 'Boss-Extrude1', #6 ) ;
#213 = APPROVAL_ROLE ( '' ) ;
#214 = EDGE_CURVE ( 'NONE', #1, #232, #155, .T. ) ;
#215 = APPROVAL_STATUS ( 'not_yet_approved' ) ;
#216 = ORIENTED_EDGE ( 'NONE', *, *, #222, .F. ) ;
#217 = CARTESIAN_POINT ( 'NONE',  ( 65.00000000000002842, -7.449999999999991296, 0.9499999999999999556 ) ) ;
#218 =( GEOMETRIC_REPRESENTATION_CONTEXT ( 3 ) GLOBAL_UNCERTAINTY_ASSIGNED_CONTEXT ( ( #196 ) ) GLOBAL_UNIT_ASSIGNED_CONTEXT ( ( #83, #231, #194 ) ) REPRESENTATION_CONTEXT ( 'NONE', 'WORKASPACE' ) );
#219 = PLANE ( 'NONE',  #201 ) ;
#220 = EDGE_LOOP ( 'NONE', ( #111, #48, #216, #73 ) ) ;
#221 = VECTOR ( 'NONE', #60, 1000.000000000000000 ) ;
#222 = EDGE_CURVE ( 'NONE', #101, #142, #163, .T. ) ;
#223 = DIRECTION ( 'NONE',  ( -1.000000000000000000, 0.0000000000000000000, -0.0000000000000000000 ) ) ;
#224 = LINE ( 'NONE', #165, #181 ) ;
#225 = CARTESIAN_POINT ( 'NONE',  ( -64.99999999999997158, -7.449999999999991296, 0.9499999999999999556 ) ) ;
#226 = APPROVAL_STATUS ( 'not_yet_approved' ) ;
#227 = DIRECTION ( 'NONE',  ( 0.0000000000000000000, -1.000000000000000000, 0.0000000000000000000 ) ) ;
#228 = APPROVAL ( #215, 'UNSPECIFIED' ) ;
#229 = LINE ( 'NONE', #207, #184 ) ;
#230 = ORGANIZATION ( 'UNSPECIFIED', 'UNSPECIFIED', '' ) ;
#231 =( NAMED_UNIT ( * ) PLANE_ANGLE_UNIT ( ) SI_UNIT ( $, .RADIAN. ) );
#232 = VERTEX_POINT ( 'NONE', #128 ) ;
#233 = VECTOR ( 'NONE', #28, 1000.000000000000000 ) ;
#234 = EDGE_CURVE ( 'NONE', #42, #135, #224, .T. ) ;
#235 = ORIENTED_EDGE ( 'NONE', *, *, #23, .F. ) ;
#236 = LINE ( 'NONE', #138, #221 ) ;
#237 = EDGE_CURVE ( 'NONE', #142, #135, #112, .T. ) ;
ENDSEC;
END-ISO-10303-21;
