ISO-10303-21;
HEADER;
FILE_DESCRIPTION (( 'STEP AP203' ),
    '1' );
FILE_NAME ('Web Model 20159_22055.step',
    '2022-06-17T13:52:43',
    ( 'WC' ),
    ( 'Windows Central' ),
    'SwSTEP 2.0',
    'SolidWorks 2021',
    '' );
FILE_SCHEMA (( 'CONFIG_CONTROL_DESIGN' ));
ENDSEC;

DATA;
#1 = CC_DESIGN_PERSON_AND_ORGANIZATION_ASSIGNMENT ( #17, #5, ( #168 ) ) ;
#2 = PERSON_AND_ORGANIZATION ( #106, #28 ) ;
#3 = DATE_AND_TIME ( #148, #32 ) ;
#4 = PERSON_AND_ORGANIZATION_ROLE ( 'creator' ) ;
#5 = PERSON_AND_ORGANIZATION_ROLE ( 'creator' ) ;
#6 = CALENDAR_DATE ( 2022, 17, 6 ) ;
#7 = AXIS2_PLACEMENT_3D ( 'NONE', #50, #105, #94 ) ;
#8 = PLANE ( 'NONE',  #71 ) ;
#9 = ORIENTED_EDGE ( 'NONE', *, *, #38, .T. ) ;
#10 = FACE_OUTER_BOUND ( 'NONE', #144, .T. ) ;
#11 = ORIENTED_EDGE ( 'NONE', *, *, #38, .F. ) ;
#12 = CARTESIAN_POINT ( 'NONE',  ( -50.00000000000000000, 0.000000000000000000, 2.000000000000000000 ) ) ;
#13 = EDGE_CURVE ( 'NONE', #174, #117, #49, .T. ) ;
#14 = SECURITY_CLASSIFICATION ( '', '', #113 ) ;
#15 = DATE_TIME_ROLE ( 'classification_date' ) ;
#16 = APPROVAL ( #43, 'UNSPECIFIED' ) ;
#17 = PERSON_AND_ORGANIZATION ( #106, #28 ) ;
#18 = AXIS2_PLACEMENT_3D ( 'NONE', #157, #143, #130 ) ;
#19 = CC_DESIGN_DATE_AND_TIME_ASSIGNMENT ( #31, #114, ( #168 ) ) ;
#20 = CARTESIAN_POINT ( 'NONE',  ( 0.000000000000000000, 0.000000000000000000, 2.000000000000000000 ) ) ;
#21 = ORIENTED_EDGE ( 'NONE', *, *, #120, .T. ) ;
#22 = FACE_OUTER_BOUND ( 'NONE', #173, .T. ) ;
#23 = VERTEX_POINT ( 'NONE', #118 ) ;
#24 = CC_DESIGN_PERSON_AND_ORGANIZATION_ASSIGNMENT ( #149, #99, ( #109 ) ) ;
#25 =( NAMED_UNIT ( * ) SI_UNIT ( $, .STERADIAN. ) SOLID_ANGLE_UNIT ( ) );
#26 =( LENGTH_UNIT ( ) NAMED_UNIT ( * ) SI_UNIT ( .MILLI., .METRE. ) );
#27 = APPROVAL_STATUS ( 'not_yet_approved' ) ;
#28 = ORGANIZATION ( 'UNSPECIFIED', 'UNSPECIFIED', '' ) ;
#29 = CALENDAR_DATE ( 2022, 17, 6 ) ;
#30 = ADVANCED_FACE ( 'NONE', ( #128 ), #156, .T. ) ;
#31 = DATE_AND_TIME ( #6, #44 ) ;
#32 = LOCAL_TIME ( 9, 52, 43.00000000000000000, #85 ) ;
#33 = DIRECTION ( 'NONE',  ( -0.000000000000000000, -0.000000000000000000, -1.000000000000000000 ) ) ;
#34 = CARTESIAN_POINT ( 'NONE',  ( 0.000000000000000000, 0.000000000000000000, 2.000000000000000000 ) ) ;
#35 = CARTESIAN_POINT ( 'NONE',  ( -50.00000000000000000, 0.000000000000000000, 0.000000000000000000 ) ) ;
#36 = APPROVAL_DATE_TIME ( #164, #16 ) ;
#37 = CIRCLE ( 'NONE', #92, 50.00000000000000000 ) ;
#38 = EDGE_CURVE ( 'NONE', #117, #23, #98, .T. ) ;
#39 = CALENDAR_DATE ( 2022, 17, 6 ) ;
#40 = CIRCLE ( 'NONE', #86, 50.00000000000000000 ) ;
#41 = COORDINATED_UNIVERSAL_TIME_OFFSET ( 5, 0, .BEHIND. ) ;
#42 = DIRECTION ( 'NONE',  ( 0.000000000000000000, 0.000000000000000000, 1.000000000000000000 ) ) ;
#43 = APPROVAL_STATUS ( 'not_yet_approved' ) ;
#44 = LOCAL_TIME ( 9, 52, 43.00000000000000000, #41 ) ;
#45 = DIRECTION ( 'NONE',  ( 0.000000000000000000, 0.000000000000000000, 1.000000000000000000 ) ) ;
#46 = EDGE_LOOP ( 'NONE', ( #91, #21, #82, #64 ) ) ;
#47 = DIRECTION ( 'NONE',  ( 0.000000000000000000, 0.000000000000000000, 1.000000000000000000 ) ) ;
#48 = ORIENTED_EDGE ( 'NONE', *, *, #76, .F. ) ;
#49 = LINE ( 'NONE', #81, #52 ) ;
#50 = CARTESIAN_POINT ( 'NONE',  ( 0.000000000000000000, 0.000000000000000000, 2.000000000000000000 ) ) ;
#51 = ORIENTED_EDGE ( 'NONE', *, *, #70, .T. ) ;
#52 = VECTOR ( 'NONE', #133, 1000.000000000000000 ) ;
#53 = EDGE_CURVE ( 'NONE', #174, #67, #37, .T. ) ;
#54 = LOCAL_TIME ( 9, 52, 43.00000000000000000, #135 ) ;
#55 = APPLICATION_PROTOCOL_DEFINITION ( 'international standard', 'config_control_design', 1994, #59 ) ;
#56 = MECHANICAL_CONTEXT ( 'NONE', #59, 'mechanical' ) ;
#57 = APPROVAL_DATE_TIME ( #84, #175 ) ;
#58 = ADVANCED_FACE ( 'NONE', ( #10 ), #8, .T. ) ;
#59 = APPLICATION_CONTEXT ( 'configuration controlled 3d designs of mechanical parts and assemblies' ) ;
#60 = CC_DESIGN_DATE_AND_TIME_ASSIGNMENT ( #121, #15, ( #14 ) ) ;
#61 = CARTESIAN_POINT ( 'NONE',  ( 0.000000000000000000, 0.000000000000000000, 2.000000000000000000 ) ) ;
#62 = ORIENTED_EDGE ( 'NONE', *, *, #53, .F. ) ;
#63 = DIRECTION ( 'NONE',  ( 1.000000000000000000, 0.000000000000000000, 0.000000000000000000 ) ) ;
#64 = ORIENTED_EDGE ( 'NONE', *, *, #13, .F. ) ;
#65 = FACE_OUTER_BOUND ( 'NONE', #93, .T. ) ;
#66 = CYLINDRICAL_SURFACE ( 'NONE', #7, 50.00000000000000000 ) ;
#67 = VERTEX_POINT ( 'NONE', #169 ) ;
#68 = APPROVAL_PERSON_ORGANIZATION ( #101, #16, #132 ) ;
#69 = APPROVAL_ROLE ( '' ) ;
#70 = EDGE_CURVE ( 'NONE', #67, #174, #40, .T. ) ;
#71 = AXIS2_PLACEMENT_3D ( 'NONE', #61, #90, #115 ) ;
#72 = APPLICATION_CONTEXT ( 'configuration controlled 3d designs of mechanical parts and assemblies' ) ;
#73 = CARTESIAN_POINT ( 'NONE',  ( 0.000000000000000000, 0.000000000000000000, 0.000000000000000000 ) ) ;
#74 = CC_DESIGN_APPROVAL ( #16, ( #147 ) ) ;
#75 = COORDINATED_UNIVERSAL_TIME_OFFSET ( 5, 0, .BEHIND. ) ;
#76 = EDGE_CURVE ( 'NONE', #23, #117, #122, .T. ) ;
#77 = DIRECTION ( 'NONE',  ( 1.000000000000000000, 0.000000000000000000, 0.000000000000000000 ) ) ;
#78 = PLANE ( 'NONE',  #107 ) ;
#79 = ORIENTED_EDGE ( 'NONE', *, *, #53, .T. ) ;
#80 = DIRECTION ( 'NONE',  ( 0.000000000000000000, 0.000000000000000000, 1.000000000000000000 ) ) ;
#81 = CARTESIAN_POINT ( 'NONE',  ( -50.00000000000000000, 0.000000000000000000, 2.000000000000000000 ) ) ;
#82 = ORIENTED_EDGE ( 'NONE', *, *, #76, .T. ) ;
#83 = PERSON_AND_ORGANIZATION ( #106, #28 ) ;
#84 = DATE_AND_TIME ( #39, #170 ) ;
#85 = COORDINATED_UNIVERSAL_TIME_OFFSET ( 5, 0, .BEHIND. ) ;
#86 = AXIS2_PLACEMENT_3D ( 'NONE', #34, #45, #103 ) ;
#87 = ADVANCED_FACE ( 'NONE', ( #22 ), #78, .F. ) ;
#88 = CC_DESIGN_APPROVAL ( #154, ( #168 ) ) ;
#89 = DIRECTION ( 'NONE',  ( -1.000000000000000000, 0.000000000000000000, 0.000000000000000000 ) ) ;
#90 = DIRECTION ( 'NONE',  ( 0.000000000000000000, 0.000000000000000000, 1.000000000000000000 ) ) ;
#91 = ORIENTED_EDGE ( 'NONE', *, *, #70, .F. ) ;
#92 = AXIS2_PLACEMENT_3D ( 'NONE', #20, #42, #77 ) ;
#93 = EDGE_LOOP ( 'NONE', ( #171, #62, #145, #9 ) ) ;
#94 = DIRECTION ( 'NONE',  ( -1.000000000000000000, 0.000000000000000000, 0.000000000000000000 ) ) ;
#95 = CC_DESIGN_PERSON_AND_ORGANIZATION_ASSIGNMENT ( #83, #97, ( #14 ) ) ;
#96 = CC_DESIGN_SECURITY_CLASSIFICATION ( #14, ( #147 ) ) ;
#97 = PERSON_AND_ORGANIZATION_ROLE ( 'classification_officer' ) ;
#98 = CIRCLE ( 'NONE', #140, 50.00000000000000000 ) ;
#99 = PERSON_AND_ORGANIZATION_ROLE ( 'design_owner' ) ;
#100 = APPROVAL_ROLE ( '' ) ;
#101 = PERSON_AND_ORGANIZATION ( #106, #28 ) ;
#102 = CARTESIAN_POINT ( 'NONE',  ( 0.000000000000000000, 0.000000000000000000, 2.000000000000000000 ) ) ;
#103 = DIRECTION ( 'NONE',  ( 1.000000000000000000, 0.000000000000000000, 0.000000000000000000 ) ) ;
#104 = CARTESIAN_POINT ( 'NONE',  ( 50.00000000000000000, 6.123233995736766085E-15, 2.000000000000000000 ) ) ;
#105 = DIRECTION ( 'NONE',  ( -0.000000000000000000, -0.000000000000000000, -1.000000000000000000 ) ) ;
#106 = PERSON ( 'UNSPECIFIED', 'UNSPECIFIED', 'UNSPECIFIED', ('UNSPECIFIED'), ('UNSPECIFIED'), ('UNSPECIFIED') ) ;
#107 = AXIS2_PLACEMENT_3D ( 'NONE', #158, #80, #131 ) ;
#108 = UNCERTAINTY_MEASURE_WITH_UNIT (LENGTH_MEASURE( 1.000000000000000082E-05 ), #26, 'distance_accuracy_value', 'NONE');
#109 = PRODUCT ( 'Web Model 20159_22055', 'Web Model 20159_22055', '', ( #56 ) ) ;
#110 = ADVANCED_FACE ( 'NONE', ( #65 ), #66, .T. ) ;
#111 = AXIS2_PLACEMENT_3D ( 'NONE', #73, #165, #125 ) ;
#112 = PERSON_AND_ORGANIZATION ( #106, #28 ) ;
#113 = SECURITY_CLASSIFICATION_LEVEL ( 'unclassified' ) ;
#114 = DATE_TIME_ROLE ( 'creation_date' ) ;
#115 = DIRECTION ( 'NONE',  ( 1.000000000000000000, 0.000000000000000000, -0.000000000000000000 ) ) ;
#116 = APPROVAL_PERSON_ORGANIZATION ( #2, #175, #69 ) ;
#117 = VERTEX_POINT ( 'NONE', #35 ) ;
#118 = CARTESIAN_POINT ( 'NONE',  ( 50.00000000000000000, 6.123233995736766085E-15, 0.000000000000000000 ) ) ;
#119 = DIRECTION ( 'NONE',  ( -0.000000000000000000, -0.000000000000000000, -1.000000000000000000 ) ) ;
#120 = EDGE_CURVE ( 'NONE', #67, #23, #159, .T. ) ;
#121 = DATE_AND_TIME ( #127, #134 ) ;
#122 = CIRCLE ( 'NONE', #18, 50.00000000000000000 ) ;
#123 = DESIGN_CONTEXT ( 'detailed design', #72, 'design' ) ;
#124 = PRODUCT_DEFINITION_SHAPE ( 'NONE', 'NONE',  #168 ) ;
#125 = DIRECTION ( 'NONE',  ( 1.000000000000000000, 0.000000000000000000, 0.000000000000000000 ) ) ;
#126 = APPROVAL_PERSON_ORGANIZATION ( #151, #154, #100 ) ;
#127 = CALENDAR_DATE ( 2022, 17, 6 ) ;
#128 = FACE_OUTER_BOUND ( 'NONE', #46, .T. ) ;
#129 = ADVANCED_BREP_SHAPE_REPRESENTATION ( 'Web Model 20159_22055', ( #161, #111 ), #141 ) ;
#130 = DIRECTION ( 'NONE',  ( 1.000000000000000000, 0.000000000000000000, 0.000000000000000000 ) ) ;
#131 = DIRECTION ( 'NONE',  ( 1.000000000000000000, 0.000000000000000000, -0.000000000000000000 ) ) ;
#132 = APPROVAL_ROLE ( '' ) ;
#133 = DIRECTION ( 'NONE',  ( -0.000000000000000000, -0.000000000000000000, -1.000000000000000000 ) ) ;
#134 = LOCAL_TIME ( 9, 52, 43.00000000000000000, #75 ) ;
#135 = COORDINATED_UNIVERSAL_TIME_OFFSET ( 5, 0, .BEHIND. ) ;
#136 = APPLICATION_PROTOCOL_DEFINITION ( 'international standard', 'config_control_design', 1994, #72 ) ;
#137 = CC_DESIGN_PERSON_AND_ORGANIZATION_ASSIGNMENT ( #152, #146, ( #147 ) ) ;
#138 = APPROVAL_STATUS ( 'not_yet_approved' ) ;
#139 = APPROVAL_DATE_TIME ( #3, #154 ) ;
#140 = AXIS2_PLACEMENT_3D ( 'NONE', #142, #47, #63 ) ;
#141 =( GEOMETRIC_REPRESENTATION_CONTEXT ( 3 ) GLOBAL_UNCERTAINTY_ASSIGNED_CONTEXT ( ( #108 ) ) GLOBAL_UNIT_ASSIGNED_CONTEXT ( ( #26, #172, #25 ) ) REPRESENTATION_CONTEXT ( 'NONE', 'WORKASPACE' ) );
#142 = CARTESIAN_POINT ( 'NONE',  ( 0.000000000000000000, 0.000000000000000000, 0.000000000000000000 ) ) ;
#143 = DIRECTION ( 'NONE',  ( 0.000000000000000000, 0.000000000000000000, 1.000000000000000000 ) ) ;
#144 = EDGE_LOOP ( 'NONE', ( #79, #51 ) ) ;
#145 = ORIENTED_EDGE ( 'NONE', *, *, #13, .T. ) ;
#146 = PERSON_AND_ORGANIZATION_ROLE ( 'design_supplier' ) ;
#147 = PRODUCT_DEFINITION_FORMATION_WITH_SPECIFIED_SOURCE ( 'ANY', '', #109, .NOT_KNOWN. ) ;
#148 = CALENDAR_DATE ( 2022, 17, 6 ) ;
#149 = PERSON_AND_ORGANIZATION ( #106, #28 ) ;
#150 = COORDINATED_UNIVERSAL_TIME_OFFSET ( 5, 0, .BEHIND. ) ;
#151 = PERSON_AND_ORGANIZATION ( #106, #28 ) ;
#152 = PERSON_AND_ORGANIZATION ( #106, #28 ) ;
#153 = VECTOR ( 'NONE', #119, 1000.000000000000000 ) ;
#154 = APPROVAL ( #138, 'UNSPECIFIED' ) ;
#155 = CC_DESIGN_PERSON_AND_ORGANIZATION_ASSIGNMENT ( #112, #4, ( #147 ) ) ;
#156 = CYLINDRICAL_SURFACE ( 'NONE', #162, 50.00000000000000000 ) ;
#157 = CARTESIAN_POINT ( 'NONE',  ( 0.000000000000000000, 0.000000000000000000, 0.000000000000000000 ) ) ;
#158 = CARTESIAN_POINT ( 'NONE',  ( 0.000000000000000000, 0.000000000000000000, 0.000000000000000000 ) ) ;
#159 = LINE ( 'NONE', #104, #153 ) ;
#160 = PRODUCT_RELATED_PRODUCT_CATEGORY ( 'detail', '', ( #109 ) ) ;
#161 = MANIFOLD_SOLID_BREP ( 'Boss-Extrude1', #167 ) ;
#162 = AXIS2_PLACEMENT_3D ( 'NONE', #102, #33, #89 ) ;
#163 = CC_DESIGN_APPROVAL ( #175, ( #14 ) ) ;
#164 = DATE_AND_TIME ( #29, #54 ) ;
#165 = DIRECTION ( 'NONE',  ( 0.000000000000000000, 0.000000000000000000, 1.000000000000000000 ) ) ;
#166 = SHAPE_DEFINITION_REPRESENTATION ( #124, #129 ) ;
#167 = CLOSED_SHELL ( 'NONE', ( #30, #110, #58, #87 ) ) ;
#168 = PRODUCT_DEFINITION ( 'UNKNOWN', '', #147, #123 ) ;
#169 = CARTESIAN_POINT ( 'NONE',  ( 50.00000000000000000, 6.123233995736766085E-15, 2.000000000000000000 ) ) ;
#170 = LOCAL_TIME ( 9, 52, 43.00000000000000000, #150 ) ;
#171 = ORIENTED_EDGE ( 'NONE', *, *, #120, .F. ) ;
#172 =( NAMED_UNIT ( * ) PLANE_ANGLE_UNIT ( ) SI_UNIT ( $, .RADIAN. ) );
#173 = EDGE_LOOP ( 'NONE', ( #11, #48 ) ) ;
#174 = VERTEX_POINT ( 'NONE', #12 ) ;
#175 = APPROVAL ( #27, 'UNSPECIFIED' ) ;
ENDSEC;
END-ISO-10303-21;
